ISO-10303-21;
HEADER;
FILE_DESCRIPTION (( 'STEP AP214' ),
    '1' );
FILE_NAME ('OpenSPIM_Stilt_1-2in-Lens.STEP',
    '2012-05-25T18:03:33',
    ( 'huiskenlab' ),
    ( '' ),
    'SwSTEP 2.0',
    'SolidWorks 2012',
    '' );
FILE_SCHEMA (( 'AUTOMOTIVE_DESIGN' ));
ENDSEC;

DATA;
#1 = UNCERTAINTY_MEASURE_WITH_UNIT (LENGTH_MEASURE( 1.000000000000000100E-005 ), #205, 'distance_accuracy_value', 'NONE');
#2 = UNCERTAINTY_MEASURE_WITH_UNIT (LENGTH_MEASURE( 1.000000000000000100E-005 ), #132, 'distance_accuracy_value', 'NONE');
#3 = MANIFOLD_SOLID_BREP ( 'Revolve1', #70 ) ;
#4 = UNCERTAINTY_MEASURE_WITH_UNIT (LENGTH_MEASURE( 1.000000000000000100E-005 ), #193, 'distance_accuracy_value', 'NONE');
#5 = ADVANCED_BREP_SHAPE_REPRESENTATION ( 'OpenSPIM_Stilt_1-2in-Lens', ( #3, #245 ), #286 ) ;
#6 = PRODUCT ( 'OpenSPIM_Stilt_1-2in-Lens', 'OpenSPIM_Stilt_1-2in-Lens', '', ( #219 ) ) ;
#7 = FACE_OUTER_BOUND ( 'NONE', #20, .T. ) ;
#8 = CYLINDRICAL_SURFACE ( 'NONE', #274, 3.350000000000000100 ) ;
#9 = EDGE_LOOP ( 'NONE', ( #88, #41, #79, #113 ) ) ;
#10 = CIRCLE ( 'NONE', #280, 2.125000000000001800 ) ;
#11 = ORIENTED_EDGE ( 'NONE', *, *, #247, .F. ) ;
#12 = ORIENTED_EDGE ( 'NONE', *, *, #268, .F. ) ;
#13 = CYLINDRICAL_SURFACE ( 'NONE', #273, 2.125000000000000900 ) ;
#14 = FACE_OUTER_BOUND ( 'NONE', #30, .T. ) ;
#15 = SHAPE_DEFINITION_REPRESENTATION ( #117, #5 ) ;
#16 = CIRCLE ( 'NONE', #281, 8.000000000000000000 ) ;
#17 = FACE_BOUND ( 'NONE', #58, .T. ) ;
#18 = COLOUR_RGB ( '',0.7921568627450980000, 0.8196078431372548800, 0.9333333333333333500 ) ;
#19 = FACE_BOUND ( 'NONE', #98, .T. ) ;
#20 = EDGE_LOOP ( 'NONE', ( #57, #71 ) ) ;
#21 = EDGE_LOOP ( 'NONE', ( #23, #43 ) ) ;
#22 = CYLINDRICAL_SURFACE ( 'NONE', #261, 3.350000000000000100 ) ;
#23 = ORIENTED_EDGE ( 'NONE', *, *, #256, .T. ) ;
#24 = ORIENTED_EDGE ( 'NONE', *, *, #260, .F. ) ;
#25 = VERTEX_POINT ( 'NONE', #202 ) ;
#26 = CIRCLE ( 'NONE', #275, 2.125000000000000000 ) ;
#27 = FACE_BOUND ( 'NONE', #63, .T. ) ;
#28 = LINE ( 'NONE', #189, #32 ) ;
#29 = CIRCLE ( 'NONE', #282, 3.350000000000000100 ) ;
#30 = EDGE_LOOP ( 'NONE', ( #87, #60, #75, #100 ) ) ;
#31 = FACE_OUTER_BOUND ( 'NONE', #72, .T. ) ;
#32 = VECTOR ( 'NONE', #230, 1000.000000000000000 ) ;
#33 = CIRCLE ( 'NONE', #272, 3.350000000000000100 ) ;
#34 = LINE ( 'NONE', #158, #91 ) ;
#35 = LINE ( 'NONE', #226, #56 ) ;
#36 = LINE ( 'NONE', #172, #40 ) ;
#37 = PRESENTATION_STYLE_ASSIGNMENT (( #179 ) ) ;
#38 = COLOUR_RGB ( '',0.7921568627450980000, 0.8196078431372548800, 0.9333333333333333500 ) ;
#39 = CIRCLE ( 'NONE', #254, 3.350000000000000100 ) ;
#40 = VECTOR ( 'NONE', #154, 1000.000000000000000 ) ;
#41 = ORIENTED_EDGE ( 'NONE', *, *, #252, .T. ) ;
#42 = FACE_OUTER_BOUND ( 'NONE', #73, .T. ) ;
#43 = ORIENTED_EDGE ( 'NONE', *, *, #251, .T. ) ;
#44 = FACE_OUTER_BOUND ( 'NONE', #102, .T. ) ;
#45 = FACE_OUTER_BOUND ( 'NONE', #54, .T. ) ;
#46 = LINE ( 'NONE', #134, #82 ) ;
#47 = CYLINDRICAL_SURFACE ( 'NONE', #266, 8.000000000000000000 ) ;
#48 = ORIENTED_EDGE ( 'NONE', *, *, #253, .F. ) ;
#49 = EDGE_LOOP ( 'NONE', ( #11, #101, #112, #69 ) ) ;
#50 = CIRCLE ( 'NONE', #277, 8.000000000000000000 ) ;
#51 = CIRCLE ( 'NONE', #276, 8.000000000000000000 ) ;
#52 = ORIENTED_EDGE ( 'NONE', *, *, #253, .T. ) ;
#53 = ORIENTED_EDGE ( 'NONE', *, *, #250, .T. ) ;
#54 = EDGE_LOOP ( 'NONE', ( #94, #48 ) ) ;
#55 = FACE_OUTER_BOUND ( 'NONE', #21, .T. ) ;
#56 = VECTOR ( 'NONE', #145, 1000.000000000000000 ) ;
#57 = ORIENTED_EDGE ( 'NONE', *, *, #248, .T. ) ;
#58 = EDGE_LOOP ( 'NONE', ( #92, #12 ) ) ;
#59 = VERTEX_POINT ( 'NONE', #229 ) ;
#60 = ORIENTED_EDGE ( 'NONE', *, *, #247, .T. ) ;
#61 = FACE_OUTER_BOUND ( 'NONE', #49, .T. ) ;
#62 = CIRCLE ( 'NONE', #279, 2.125000000000000000 ) ;
#63 = EDGE_LOOP ( 'NONE', ( #111, #107 ) ) ;
#64 = VERTEX_POINT ( 'NONE', #212 ) ;
#65 = CIRCLE ( 'NONE', #283, 2.125000000000001800 ) ;
#66 = ORIENTED_EDGE ( 'NONE', *, *, #262, .F. ) ;
#67 = VERTEX_POINT ( 'NONE', #221 ) ;
#68 = ORIENTED_EDGE ( 'NONE', *, *, #257, .T. ) ;
#69 = ORIENTED_EDGE ( 'NONE', *, *, #249, .F. ) ;
#70 = CLOSED_SHELL ( 'NONE', ( #240, #238, #237, #239, #293, #294, #292, #235, #236 ) ) ;
#71 = ORIENTED_EDGE ( 'NONE', *, *, #249, .T. ) ;
#72 = EDGE_LOOP ( 'NONE', ( #106, #52, #110, #77 ) ) ;
#73 = EDGE_LOOP ( 'NONE', ( #24, #66, #105, #53 ) ) ;
#74 = FACE_OUTER_BOUND ( 'NONE', #9, .T. ) ;
#75 = ORIENTED_EDGE ( 'NONE', *, *, #248, .F. ) ;
#76 = PRESENTATION_STYLE_ASSIGNMENT (( #184 ) ) ;
#77 = ORIENTED_EDGE ( 'NONE', *, *, #251, .F. ) ;
#78 = ORIENTED_EDGE ( 'NONE', *, *, #269, .T. ) ;
#79 = ORIENTED_EDGE ( 'NONE', *, *, #256, .F. ) ;
#80 = VERTEX_POINT ( 'NONE', #185 ) ;
#81 = CIRCLE ( 'NONE', #278, 8.000000000000000000 ) ;
#82 = VECTOR ( 'NONE', #174, 1000.000000000000000 ) ;
#83 = SURFACE_STYLE_FILL_AREA ( #196 ) ;
#84 = CYLINDRICAL_SURFACE ( 'NONE', #255, 2.125000000000000900 ) ;
#85 = VERTEX_POINT ( 'NONE', #177 ) ;
#86 = VECTOR ( 'NONE', #199, 1000.000000000000000 ) ;
#87 = ORIENTED_EDGE ( 'NONE', *, *, #270, .T. ) ;
#88 = ORIENTED_EDGE ( 'NONE', *, *, #264, .T. ) ;
#89 = CYLINDRICAL_SURFACE ( 'NONE', #289, 8.000000000000000000 ) ;
#90 = VERTEX_POINT ( 'NONE', #138 ) ;
#91 = VECTOR ( 'NONE', #120, 1000.000000000000000 ) ;
#92 = ORIENTED_EDGE ( 'NONE', *, *, #270, .F. ) ;
#93 = CIRCLE ( 'NONE', #284, 3.350000000000000100 ) ;
#94 = ORIENTED_EDGE ( 'NONE', *, *, #264, .F. ) ;
#95 = ORIENTED_EDGE ( 'NONE', *, *, #260, .T. ) ;
#96 = LINE ( 'NONE', #133, #86 ) ;
#97 = ORIENTED_EDGE ( 'NONE', *, *, #262, .T. ) ;
#98 = EDGE_LOOP ( 'NONE', ( #97, #78 ) ) ;
#99 = SURFACE_STYLE_FILL_AREA ( #188 ) ;
#100 = ORIENTED_EDGE ( 'NONE', *, *, #265, .F. ) ;
#101 = ORIENTED_EDGE ( 'NONE', *, *, #268, .T. ) ;
#102 = EDGE_LOOP ( 'NONE', ( #114, #95, #68, #108 ) ) ;
#103 = VERTEX_POINT ( 'NONE', #225 ) ;
#104 = VERTEX_POINT ( 'NONE', #190 ) ;
#105 = ORIENTED_EDGE ( 'NONE', *, *, #246, .T. ) ;
#106 = ORIENTED_EDGE ( 'NONE', *, *, #252, .F. ) ;
#107 = ORIENTED_EDGE ( 'NONE', *, *, #257, .F. ) ;
#108 = ORIENTED_EDGE ( 'NONE', *, *, #246, .F. ) ;
#109 = VERTEX_POINT ( 'NONE', #216 ) ;
#110 = ORIENTED_EDGE ( 'NONE', *, *, #259, .T. ) ;
#111 = ORIENTED_EDGE ( 'NONE', *, *, #250, .F. ) ;
#112 = ORIENTED_EDGE ( 'NONE', *, *, #265, .T. ) ;
#113 = ORIENTED_EDGE ( 'NONE', *, *, #259, .F. ) ;
#114 = ORIENTED_EDGE ( 'NONE', *, *, #269, .F. ) ;
#115 = VERTEX_POINT ( 'NONE', #165 ) ;
#116 = VERTEX_POINT ( 'NONE', #223 ) ;
#117 = PRODUCT_DEFINITION_SHAPE ( 'NONE', 'NONE',  #244 ) ;
#118 = PRODUCT_DEFINITION_CONTEXT ( 'detailed design', #169, 'design' ) ;
#119 = DIRECTION ( 'NONE',  ( 0.0000000000000000000, 0.0000000000000000000, -1.000000000000000000 ) ) ;
#120 = DIRECTION ( 'NONE',  ( -0.0000000000000000000, -1.000000000000000000, -0.0000000000000000000 ) ) ;
#121 = CARTESIAN_POINT ( 'NONE',  ( 0.0000000000000000000, 0.0000000000000000000, 0.0000000000000000000 ) ) ;
#122 = DIRECTION ( 'NONE',  ( 0.0000000000000000000, 0.0000000000000000000, -1.000000000000000000 ) ) ;
#123 = DIRECTION ( 'NONE',  ( 0.0000000000000000000, -0.0000000000000000000, 1.000000000000000000 ) ) ;
#124 = FILL_AREA_STYLE_COLOUR ( '', #38 ) ;
#125 = DIRECTION ( 'NONE',  ( -0.0000000000000000000, -1.000000000000000000, -0.0000000000000000000 ) ) ;
#126 = CARTESIAN_POINT ( 'NONE',  ( 0.0000000000000000000, 17.25000000000000000, 0.0000000000000000000 ) ) ;
#127 = DIRECTION ( 'NONE',  ( -0.0000000000000000000, -1.000000000000000000, -0.0000000000000000000 ) ) ;
#128 = DIRECTION ( 'NONE',  ( 0.0000000000000000000, 1.000000000000000000, 0.0000000000000000000 ) ) ;
#129 = DIRECTION ( 'NONE',  ( -0.0000000000000000000, -1.000000000000000000, -0.0000000000000000000 ) ) ;
#130 = DIRECTION ( 'NONE',  ( 0.0000000000000000000, 0.0000000000000000000, -1.000000000000000000 ) ) ;
#131 = CARTESIAN_POINT ( 'NONE',  ( 0.0000000000000000000, 0.0000000000000000000, 0.0000000000000000000 ) ) ;
#132 =( LENGTH_UNIT ( ) NAMED_UNIT ( * ) SI_UNIT ( .MILLI., .METRE. ) );
#133 = CARTESIAN_POINT ( 'NONE',  ( 9.797174393178825700E-016, -0.4649995787522655000, 8.000000000000000000 ) ) ;
#134 = CARTESIAN_POINT ( 'NONE',  ( 0.0000000000000000000, -0.4649995787522655000, -2.125000000000000900 ) ) ;
#135 = APPLICATION_CONTEXT ( 'automotive_design' ) ;
#136 = CARTESIAN_POINT ( 'NONE',  ( 0.0000000000000000000, 2.299999999999999800, 0.0000000000000000000 ) ) ;
#137 = DIRECTION ( 'NONE',  ( -0.0000000000000000000, -1.000000000000000000, -0.0000000000000000000 ) ) ;
#138 = CARTESIAN_POINT ( 'NONE',  ( 9.797174393178825700E-016, 17.25000000000000000, 8.000000000000000000 ) ) ;
#139 = CARTESIAN_POINT ( 'NONE',  ( 0.0000000000000000000, -0.4649995787522655000, 0.0000000000000000000 ) ) ;
#140 = CARTESIAN_POINT ( 'NONE',  ( 0.0000000000000000000, -0.4649995787522655000, 0.0000000000000000000 ) ) ;
#141 = DIRECTION ( 'NONE',  ( 0.0000000000000000000, 0.0000000000000000000, -1.000000000000000000 ) ) ;
#142 = PLANE ( 'NONE',  #285 ) ;
#143 = CARTESIAN_POINT ( 'NONE',  ( 0.0000000000000000000, 0.0000000000000000000, 0.0000000000000000000 ) ) ;
#144 = DIRECTION ( 'NONE',  ( 0.0000000000000000000, 0.0000000000000000000, -1.000000000000000000 ) ) ;
#145 = DIRECTION ( 'NONE',  ( -0.0000000000000000000, -1.000000000000000000, -0.0000000000000000000 ) ) ;
#146 = DIRECTION ( 'NONE',  ( -0.0000000000000000000, -1.000000000000000000, -0.0000000000000000000 ) ) ;
#147 = DIRECTION ( 'NONE',  ( -0.0000000000000000000, -1.000000000000000000, -0.0000000000000000000 ) ) ;
#148 = DIRECTION ( 'NONE',  ( 0.0000000000000000000, 0.0000000000000000000, -1.000000000000000000 ) ) ;
#149 = CARTESIAN_POINT ( 'NONE',  ( -8.000000000000000000, 17.25000000000000000, 0.0000000000000000000 ) ) ;
#150 = DIRECTION ( 'NONE',  ( 0.0000000000000000000, 0.0000000000000000000, -1.000000000000000000 ) ) ;
#151 =( NAMED_UNIT ( * ) PLANE_ANGLE_UNIT ( ) SI_UNIT ( $, .RADIAN. ) );
#152 = DIRECTION ( 'NONE',  ( -0.0000000000000000000, -1.000000000000000000, -0.0000000000000000000 ) ) ;
#153 = SURFACE_SIDE_STYLE ('',( #83 ) ) ;
#154 = DIRECTION ( 'NONE',  ( -0.0000000000000000000, -1.000000000000000000, -0.0000000000000000000 ) ) ;
#155 = CARTESIAN_POINT ( 'NONE',  ( 0.0000000000000000000, 2.299999999999999800, 0.0000000000000000000 ) ) ;
#156 = CARTESIAN_POINT ( 'NONE',  ( -3.350000000000000100, 0.0000000000000000000, 0.0000000000000000000 ) ) ;
#157 = DIRECTION ( 'NONE',  ( -0.0000000000000000000, -1.000000000000000000, -0.0000000000000000000 ) ) ;
#158 = CARTESIAN_POINT ( 'NONE',  ( 4.102566777143633300E-016, -0.4649995787522655000, 3.350000000000000100 ) ) ;
#159 = DIRECTION ( 'NONE',  ( 0.0000000000000000000, 0.0000000000000000000, -1.000000000000000000 ) ) ;
#160 = CARTESIAN_POINT ( 'NONE',  ( 0.0000000000000000000, 17.25000000000000000, 0.0000000000000000000 ) ) ;
#161 = CARTESIAN_POINT ( 'NONE',  ( 0.0000000000000000000, -0.4649995787522655000, 0.0000000000000000000 ) ) ;
#162 = DIRECTION ( 'NONE',  ( 0.0000000000000000000, 0.0000000000000000000, 1.000000000000000000 ) ) ;
#163 = DIRECTION ( 'NONE',  ( 0.0000000000000000000, 0.0000000000000000000, -1.000000000000000000 ) ) ;
#164 =( NAMED_UNIT ( * ) PLANE_ANGLE_UNIT ( ) SI_UNIT ( $, .RADIAN. ) );
#165 = CARTESIAN_POINT ( 'NONE',  ( 2.602374448188127800E-016, 17.25000000000000000, 2.125000000000001800 ) ) ;
#166 = CARTESIAN_POINT ( 'NONE',  ( 0.0000000000000000000, 17.25000000000000000, 0.0000000000000000000 ) ) ;
#167 =( NAMED_UNIT ( * ) SI_UNIT ( $, .STERADIAN. ) SOLID_ANGLE_UNIT ( ) );
#168 = DIRECTION ( 'NONE',  ( 1.000000000000000000, 0.0000000000000000000, 0.0000000000000000000 ) ) ;
#169 = APPLICATION_CONTEXT ( 'automotive_design' ) ;
#170 = APPLICATION_PROTOCOL_DEFINITION ( 'draft international standard', 'automotive_design', 1998, #135 ) ;
#171 = DIRECTION ( 'NONE',  ( -0.0000000000000000000, -1.000000000000000000, -0.0000000000000000000 ) ) ;
#172 = CARTESIAN_POINT ( 'NONE',  ( 0.0000000000000000000, -0.4649995787522655000, -8.000000000000000000 ) ) ;
#173 =( NAMED_UNIT ( * ) SI_UNIT ( $, .STERADIAN. ) SOLID_ANGLE_UNIT ( ) );
#174 = DIRECTION ( 'NONE',  ( -0.0000000000000000000, -1.000000000000000000, -0.0000000000000000000 ) ) ;
#175 = DIRECTION ( 'NONE',  ( 0.0000000000000000000, 1.000000000000000000, 0.0000000000000000000 ) ) ;
#176 = CARTESIAN_POINT ( 'NONE',  ( 0.0000000000000000000, 17.25000000000000000, 0.0000000000000000000 ) ) ;
#177 = CARTESIAN_POINT ( 'NONE',  ( 0.0000000000000000000, 0.0000000000000000000, -3.350000000000000100 ) ) ;
#178 = DIRECTION ( 'NONE',  ( 0.0000000000000000000, 0.0000000000000000000, -1.000000000000000000 ) ) ;
#179 = SURFACE_STYLE_USAGE ( .BOTH. , #206 ) ;
#180 = DIRECTION ( 'NONE',  ( 0.0000000000000000000, -0.0000000000000000000, 1.000000000000000000 ) ) ;
#181 = DIRECTION ( 'NONE',  ( -0.0000000000000000000, -1.000000000000000000, -0.0000000000000000000 ) ) ;
#182 = DIRECTION ( 'NONE',  ( -0.0000000000000000000, -1.000000000000000000, -0.0000000000000000000 ) ) ;
#183 = PLANE ( 'NONE',  #267 ) ;
#184 = SURFACE_STYLE_USAGE ( .BOTH. , #153 ) ;
#185 = CARTESIAN_POINT ( 'NONE',  ( 0.0000000000000000000, 2.299999999999999800, -3.350000000000000100 ) ) ;
#186 = DIRECTION ( 'NONE',  ( 0.0000000000000000000, 0.0000000000000000000, -1.000000000000000000 ) ) ;
#187 = DIRECTION ( 'NONE',  ( 0.0000000000000000000, -1.000000000000000000, -0.0000000000000000000 ) ) ;
#188 = FILL_AREA_STYLE ('',( #228 ) ) ;
#189 = CARTESIAN_POINT ( 'NONE',  ( 0.0000000000000000000, -0.4649995787522655000, -3.350000000000000100 ) ) ;
#190 = CARTESIAN_POINT ( 'NONE',  ( 4.102566777143633300E-016, 2.299999999999999800, 3.350000000000000100 ) ) ;
#191 = CARTESIAN_POINT ( 'NONE',  ( -8.000000000000000000, 2.299999999999999800, 0.0000000000000000000 ) ) ;
#192 = DIRECTION ( 'NONE',  ( -0.0000000000000000000, -1.000000000000000000, -0.0000000000000000000 ) ) ;
#193 =( LENGTH_UNIT ( ) NAMED_UNIT ( * ) SI_UNIT ( .MILLI., .METRE. ) );
#194 = DIRECTION ( 'NONE',  ( 0.0000000000000000000, 0.0000000000000000000, -1.000000000000000000 ) ) ;
#195 = CARTESIAN_POINT ( 'NONE',  ( 0.0000000000000000000, 2.299999999999999800, 0.0000000000000000000 ) ) ;
#196 = FILL_AREA_STYLE ('',( #124 ) ) ;
#197 = DIRECTION ( 'NONE',  ( -0.0000000000000000000, -1.000000000000000000, -0.0000000000000000000 ) ) ;
#198 = CARTESIAN_POINT ( 'NONE',  ( 0.0000000000000000000, 0.0000000000000000000, 0.0000000000000000000 ) ) ;
#199 = DIRECTION ( 'NONE',  ( -0.0000000000000000000, -1.000000000000000000, -0.0000000000000000000 ) ) ;
#200 = CARTESIAN_POINT ( 'NONE',  ( 0.0000000000000000000, 0.0000000000000000000, 0.0000000000000000000 ) ) ;
#201 = DIRECTION ( 'NONE',  ( 0.0000000000000000000, 0.0000000000000000000, -1.000000000000000000 ) ) ;
#202 = CARTESIAN_POINT ( 'NONE',  ( 0.0000000000000000000, 0.0000000000000000000, -2.125000000000000000 ) ) ;
#203 = DIRECTION ( 'NONE',  ( 0.0000000000000000000, 0.0000000000000000000, -1.000000000000000000 ) ) ;
#204 = DIRECTION ( 'NONE',  ( 0.0000000000000000000, 0.0000000000000000000, -1.000000000000000000 ) ) ;
#205 =( LENGTH_UNIT ( ) NAMED_UNIT ( * ) SI_UNIT ( .MILLI., .METRE. ) );
#206 = SURFACE_SIDE_STYLE ('',( #99 ) ) ;
#207 = CARTESIAN_POINT ( 'NONE',  ( 0.0000000000000000000, 2.299999999999999800, 0.0000000000000000000 ) ) ;
#208 = CARTESIAN_POINT ( 'NONE',  ( 0.0000000000000000000, -0.4649995787522655000, 0.0000000000000000000 ) ) ;
#209 = DIRECTION ( 'NONE',  ( -0.0000000000000000000, -1.000000000000000000, -0.0000000000000000000 ) ) ;
#210 = DIRECTION ( 'NONE',  ( 0.0000000000000000000, 0.0000000000000000000, -1.000000000000000000 ) ) ;
#211 =( NAMED_UNIT ( * ) SI_UNIT ( $, .STERADIAN. ) SOLID_ANGLE_UNIT ( ) );
#212 = CARTESIAN_POINT ( 'NONE',  ( 4.102566777143633300E-016, 0.0000000000000000000, 3.350000000000000100 ) ) ;
#213 = DIRECTION ( 'NONE',  ( -0.0000000000000000000, -1.000000000000000000, -0.0000000000000000000 ) ) ;
#214 = DIRECTION ( 'NONE',  ( 0.0000000000000000000, 0.0000000000000000000, -1.000000000000000000 ) ) ;
#215 =( NAMED_UNIT ( * ) PLANE_ANGLE_UNIT ( ) SI_UNIT ( $, .RADIAN. ) );
#216 = CARTESIAN_POINT ( 'NONE',  ( 0.0000000000000000000, 17.25000000000000000, -2.125000000000001800 ) ) ;
#217 = DIRECTION ( 'NONE',  ( -0.0000000000000000000, -1.000000000000000000, -0.0000000000000000000 ) ) ;
#218 = APPLICATION_PROTOCOL_DEFINITION ( 'draft international standard', 'automotive_design', 1998, #169 ) ;
#219 = PRODUCT_CONTEXT ( 'NONE', #135, 'mechanical' ) ;
#220 = DIRECTION ( 'NONE',  ( -0.0000000000000000000, -1.000000000000000000, -0.0000000000000000000 ) ) ;
#221 = CARTESIAN_POINT ( 'NONE',  ( 0.0000000000000000000, 17.25000000000000000, -8.000000000000000000 ) ) ;
#222 = DIRECTION ( 'NONE',  ( -0.0000000000000000000, -1.000000000000000000, -0.0000000000000000000 ) ) ;
#223 = CARTESIAN_POINT ( 'NONE',  ( 0.0000000000000000000, 2.299999999999999800, -8.000000000000000000 ) ) ;
#224 = DIRECTION ( 'NONE',  ( 0.0000000000000000000, 0.0000000000000000000, -1.000000000000000000 ) ) ;
#225 = CARTESIAN_POINT ( 'NONE',  ( 9.797174393178825700E-016, 2.299999999999999800, 8.000000000000000000 ) ) ;
#226 = CARTESIAN_POINT ( 'NONE',  ( 2.602374448188126800E-016, -0.4649995787522655000, 2.125000000000000900 ) ) ;
#227 = DIRECTION ( 'NONE',  ( 0.0000000000000000000, 0.0000000000000000000, -1.000000000000000000 ) ) ;
#228 = FILL_AREA_STYLE_COLOUR ( '', #18 ) ;
#229 = CARTESIAN_POINT ( 'NONE',  ( 2.602374448188126300E-016, 0.0000000000000000000, 2.125000000000000000 ) ) ;
#230 = DIRECTION ( 'NONE',  ( -0.0000000000000000000, -1.000000000000000000, -0.0000000000000000000 ) ) ;
#231 = PLANE ( 'NONE',  #287 ) ;
#232 = CARTESIAN_POINT ( 'NONE',  ( 0.0000000000000000000, -0.4649995787522655000, 0.0000000000000000000 ) ) ;
#233 = CARTESIAN_POINT ( 'NONE',  ( 0.0000000000000000000, -0.4649995787522655000, 0.0000000000000000000 ) ) ;
#234 = PRESENTATION_LAYER_ASSIGNMENT (  '', '', ( #258 ) ) ;
#235 = ADVANCED_FACE ( 'NONE', ( #61 ), #22, .T. ) ;
#236 = ADVANCED_FACE ( 'NONE', ( #27, #7 ), #183, .F. ) ;
#237 = ADVANCED_FACE ( 'NONE', ( #44 ), #84, .F. ) ;
#238 = ADVANCED_FACE ( 'NONE', ( #74 ), #47, .T. ) ;
#239 = ADVANCED_FACE ( 'NONE', ( #42 ), #13, .F. ) ;
#240 = ADVANCED_FACE ( 'NONE', ( #14 ), #8, .T. ) ;
#241 =( GEOMETRIC_REPRESENTATION_CONTEXT ( 3 ) GLOBAL_UNCERTAINTY_ASSIGNED_CONTEXT ( ( #2 ) ) GLOBAL_UNIT_ASSIGNED_CONTEXT ( ( #132, #164, #167 ) ) REPRESENTATION_CONTEXT ( 'NONE', 'WORKASPACE' ) );
#242 = PRODUCT_RELATED_PRODUCT_CATEGORY ( 'part', '', ( #6 ) ) ;
#243 = PRODUCT_DEFINITION_FORMATION_WITH_SPECIFIED_SOURCE ( 'ANY', '', #6, .NOT_KNOWN. ) ;
#244 = PRODUCT_DEFINITION ( 'UNKNOWN', '', #243, #118 ) ;
#245 = AXIS2_PLACEMENT_3D ( 'NONE', #131, #162, #168 ) ;
#246 = EDGE_CURVE ( 'NONE', #109, #25, #46, .T. ) ;
#247 = EDGE_CURVE ( 'NONE', #104, #64, #34, .T. ) ;
#248 = EDGE_CURVE ( 'NONE', #85, #64, #39, .T. ) ;
#249 = EDGE_CURVE ( 'NONE', #64, #85, #33, .T. ) ;
#250 = EDGE_CURVE ( 'NONE', #25, #59, #26, .T. ) ;
#251 = EDGE_CURVE ( 'NONE', #103, #116, #51, .T. ) ;
#252 = EDGE_CURVE ( 'NONE', #90, #103, #96, .T. ) ;
#253 = EDGE_CURVE ( 'NONE', #90, #67, #50, .T. ) ;
#254 = AXIS2_PLACEMENT_3D ( 'NONE', #121, #181, #210 ) ;
#255 = AXIS2_PLACEMENT_3D ( 'NONE', #139, #197, #163 ) ;
#256 = EDGE_CURVE ( 'NONE', #116, #103, #81, .T. ) ;
#257 = EDGE_CURVE ( 'NONE', #59, #25, #62, .T. ) ;
#258 = STYLED_ITEM ( 'NONE', ( #76 ), #3 ) ;
#259 = EDGE_CURVE ( 'NONE', #67, #116, #36, .T. ) ;
#260 = EDGE_CURVE ( 'NONE', #115, #59, #35, .T. ) ;
#261 = AXIS2_PLACEMENT_3D ( 'NONE', #233, #146, #141 ) ;
#262 = EDGE_CURVE ( 'NONE', #109, #115, #10, .T. ) ;
#263 = MECHANICAL_DESIGN_GEOMETRIC_PRESENTATION_REPRESENTATION (  '', ( #258 ), #271 ) ;
#264 = EDGE_CURVE ( 'NONE', #67, #90, #16, .T. ) ;
#265 = EDGE_CURVE ( 'NONE', #80, #85, #28, .T. ) ;
#266 = AXIS2_PLACEMENT_3D ( 'NONE', #208, #220, #214 ) ;
#267 = AXIS2_PLACEMENT_3D ( 'NONE', #156, #128, #180 ) ;
#268 = EDGE_CURVE ( 'NONE', #104, #80, #29, .T. ) ;
#269 = EDGE_CURVE ( 'NONE', #115, #109, #65, .T. ) ;
#270 = EDGE_CURVE ( 'NONE', #80, #104, #93, .T. ) ;
#271 =( GEOMETRIC_REPRESENTATION_CONTEXT ( 3 ) GLOBAL_UNCERTAINTY_ASSIGNED_CONTEXT ( ( #4 ) ) GLOBAL_UNIT_ASSIGNED_CONTEXT ( ( #193, #215, #211 ) ) REPRESENTATION_CONTEXT ( 'NONE', 'WORKASPACE' ) );
#272 = AXIS2_PLACEMENT_3D ( 'NONE', #143, #127, #119 ) ;
#273 = AXIS2_PLACEMENT_3D ( 'NONE', #161, #209, #122 ) ;
#274 = AXIS2_PLACEMENT_3D ( 'NONE', #140, #147, #201 ) ;
#275 = AXIS2_PLACEMENT_3D ( 'NONE', #200, #152, #186 ) ;
#276 = AXIS2_PLACEMENT_3D ( 'NONE', #136, #171, #204 ) ;
#277 = AXIS2_PLACEMENT_3D ( 'NONE', #126, #217, #148 ) ;
#278 = AXIS2_PLACEMENT_3D ( 'NONE', #155, #182, #194 ) ;
#279 = AXIS2_PLACEMENT_3D ( 'NONE', #198, #213, #203 ) ;
#280 = AXIS2_PLACEMENT_3D ( 'NONE', #176, #137, #130 ) ;
#281 = AXIS2_PLACEMENT_3D ( 'NONE', #166, #129, #178 ) ;
#282 = AXIS2_PLACEMENT_3D ( 'NONE', #207, #125, #159 ) ;
#283 = AXIS2_PLACEMENT_3D ( 'NONE', #160, #157, #224 ) ;
#284 = AXIS2_PLACEMENT_3D ( 'NONE', #195, #192, #144 ) ;
#285 = AXIS2_PLACEMENT_3D ( 'NONE', #191, #175, #123 ) ;
#286 =( GEOMETRIC_REPRESENTATION_CONTEXT ( 3 ) GLOBAL_UNCERTAINTY_ASSIGNED_CONTEXT ( ( #1 ) ) GLOBAL_UNIT_ASSIGNED_CONTEXT ( ( #205, #151, #173 ) ) REPRESENTATION_CONTEXT ( 'NONE', 'WORKASPACE' ) );
#287 = AXIS2_PLACEMENT_3D ( 'NONE', #149, #187, #227 ) ;
#288 = STYLED_ITEM ( 'NONE', ( #37 ), #5 ) ;
#289 = AXIS2_PLACEMENT_3D ( 'NONE', #232, #222, #150 ) ;
#290 = PRESENTATION_LAYER_ASSIGNMENT (  '', '', ( #288 ) ) ;
#291 = MECHANICAL_DESIGN_GEOMETRIC_PRESENTATION_REPRESENTATION (  '', ( #288 ), #241 ) ;
#292 = ADVANCED_FACE ( 'NONE', ( #17, #55 ), #142, .F. ) ;
#293 = ADVANCED_FACE ( 'NONE', ( #45, #19 ), #231, .F. ) ;
#294 = ADVANCED_FACE ( 'NONE', ( #31 ), #89, .T. ) ;
ENDSEC;
END-ISO-10303-21;
