ISO-10303-21;
HEADER;
/* Generated by software containing ST-Developer
 * from STEP Tools, Inc. (www.steptools.com) 
 */

FILE_DESCRIPTION(
/* description */ (''),
/* implementation_level */ '2;1');

FILE_NAME(
/* name */ 
'C:\\Users\\Charl\X\E8ne Brillard\\Desktop\\GHOSTINTHESHELL\\LM\\OpenS
PIM\\CAD\\ObjectiveHolder-Tail2-rev2.stp',
/* time_stamp */ '2021-12-08T19:59:04+01:00',
/* author */ ('Charlene Brillard'),
/* organization */ (''),
/* preprocessor_version */ 'ST-DEVELOPER v16.5',
/* originating_system */ 'Autodesk Inventor 2017',
/* authorisation */ '');

FILE_SCHEMA (('AUTOMOTIVE_DESIGN { 1 0 10303 214 3 1 1 }'));
ENDSEC;

DATA;
#10=MECHANICAL_DESIGN_GEOMETRIC_PRESENTATION_REPRESENTATION('',(#13),#358);
#11=SHAPE_REPRESENTATION_RELATIONSHIP('SRR','None',#367,#12);
#12=ADVANCED_BREP_SHAPE_REPRESENTATION('',(#14),#357);
#13=STYLED_ITEM('',(#376),#14);
#14=MANIFOLD_SOLID_BREP('Solid1',#212);
#15=FACE_BOUND('',#50,.T.);
#16=FACE_BOUND('',#53,.T.);
#17=FACE_BOUND('',#58,.T.);
#18=FACE_BOUND('',#59,.T.);
#19=CONICAL_SURFACE('',#227,0.39175,59.);
#20=CONICAL_SURFACE('',#231,0.39175,59.);
#21=CIRCLE('',#223,2.);
#22=CIRCLE('',#224,2.);
#23=CIRCLE('',#228,0.7835);
#24=CIRCLE('',#230,0.7835);
#25=CIRCLE('',#232,0.7835);
#26=CIRCLE('',#234,0.7835);
#27=CYLINDRICAL_SURFACE('',#222,2.);
#28=CYLINDRICAL_SURFACE('',#229,0.7835);
#29=CYLINDRICAL_SURFACE('',#233,0.7835);
#30=FACE_OUTER_BOUND('',#43,.T.);
#31=FACE_OUTER_BOUND('',#44,.T.);
#32=FACE_OUTER_BOUND('',#45,.T.);
#33=FACE_OUTER_BOUND('',#46,.T.);
#34=FACE_OUTER_BOUND('',#47,.T.);
#35=FACE_OUTER_BOUND('',#48,.T.);
#36=FACE_OUTER_BOUND('',#49,.T.);
#37=FACE_OUTER_BOUND('',#51,.T.);
#38=FACE_OUTER_BOUND('',#52,.T.);
#39=FACE_OUTER_BOUND('',#54,.T.);
#40=FACE_OUTER_BOUND('',#55,.T.);
#41=FACE_OUTER_BOUND('',#56,.T.);
#42=FACE_OUTER_BOUND('',#57,.T.);
#43=EDGE_LOOP('',(#141,#142,#143,#144));
#44=EDGE_LOOP('',(#145,#146,#147,#148));
#45=EDGE_LOOP('',(#149,#150,#151,#152));
#46=EDGE_LOOP('',(#153,#154,#155,#156));
#47=EDGE_LOOP('',(#157,#158,#159,#160,#161,#162,#163));
#48=EDGE_LOOP('',(#164));
#49=EDGE_LOOP('',(#165));
#50=EDGE_LOOP('',(#166));
#51=EDGE_LOOP('',(#167));
#52=EDGE_LOOP('',(#168));
#53=EDGE_LOOP('',(#169));
#54=EDGE_LOOP('',(#170,#171,#172,#173,#174,#175,#176));
#55=EDGE_LOOP('',(#177,#178,#179,#180));
#56=EDGE_LOOP('',(#181,#182,#183,#184));
#57=EDGE_LOOP('',(#185,#186,#187,#188));
#58=EDGE_LOOP('',(#189));
#59=EDGE_LOOP('',(#190));
#60=LINE('',#302,#79);
#61=LINE('',#304,#80);
#62=LINE('',#306,#81);
#63=LINE('',#307,#82);
#64=LINE('',#311,#83);
#65=LINE('',#313,#84);
#66=LINE('',#315,#85);
#67=LINE('',#316,#86);
#68=LINE('',#322,#87);
#69=LINE('',#324,#88);
#70=LINE('',#325,#89);
#71=LINE('',#328,#90);
#72=LINE('',#330,#91);
#73=LINE('',#331,#92);
#74=LINE('',#346,#93);
#75=LINE('',#348,#94);
#76=LINE('',#349,#95);
#77=LINE('',#351,#96);
#78=LINE('',#352,#97);
#79=VECTOR('',#243,10.);
#80=VECTOR('',#244,10.);
#81=VECTOR('',#245,10.);
#82=VECTOR('',#246,10.);
#83=VECTOR('',#249,10.);
#84=VECTOR('',#250,10.);
#85=VECTOR('',#251,10.);
#86=VECTOR('',#252,10.);
#87=VECTOR('',#261,10.);
#88=VECTOR('',#262,10.);
#89=VECTOR('',#263,10.);
#90=VECTOR('',#266,10.);
#91=VECTOR('',#267,10.);
#92=VECTOR('',#268,10.);
#93=VECTOR('',#287,10.);
#94=VECTOR('',#288,10.);
#95=VECTOR('',#289,10.);
#96=VECTOR('',#292,10.);
#97=VECTOR('',#293,10.);
#98=VERTEX_POINT('',#300);
#99=VERTEX_POINT('',#301);
#100=VERTEX_POINT('',#303);
#101=VERTEX_POINT('',#305);
#102=VERTEX_POINT('',#309);
#103=VERTEX_POINT('',#310);
#104=VERTEX_POINT('',#312);
#105=VERTEX_POINT('',#314);
#106=VERTEX_POINT('',#321);
#107=VERTEX_POINT('',#323);
#108=VERTEX_POINT('',#327);
#109=VERTEX_POINT('',#329);
#110=VERTEX_POINT('',#333);
#111=VERTEX_POINT('',#336);
#112=VERTEX_POINT('',#339);
#113=VERTEX_POINT('',#342);
#114=VERTEX_POINT('',#345);
#115=VERTEX_POINT('',#347);
#116=EDGE_CURVE('',#98,#99,#60,.T.);
#117=EDGE_CURVE('',#100,#98,#61,.T.);
#118=EDGE_CURVE('',#101,#100,#62,.T.);
#119=EDGE_CURVE('',#99,#101,#63,.T.);
#120=EDGE_CURVE('',#102,#103,#64,.T.);
#121=EDGE_CURVE('',#104,#102,#65,.T.);
#122=EDGE_CURVE('',#105,#104,#66,.T.);
#123=EDGE_CURVE('',#105,#103,#67,.T.);
#124=EDGE_CURVE('',#103,#98,#21,.T.);
#125=EDGE_CURVE('',#100,#105,#22,.T.);
#126=EDGE_CURVE('',#106,#101,#68,.T.);
#127=EDGE_CURVE('',#106,#107,#69,.T.);
#128=EDGE_CURVE('',#107,#99,#70,.T.);
#129=EDGE_CURVE('',#108,#104,#71,.T.);
#130=EDGE_CURVE('',#109,#108,#72,.T.);
#131=EDGE_CURVE('',#109,#106,#73,.T.);
#132=EDGE_CURVE('',#110,#110,#23,.T.);
#133=EDGE_CURVE('',#111,#111,#24,.T.);
#134=EDGE_CURVE('',#112,#112,#25,.T.);
#135=EDGE_CURVE('',#113,#113,#26,.T.);
#136=EDGE_CURVE('',#107,#114,#74,.T.);
#137=EDGE_CURVE('',#114,#115,#75,.T.);
#138=EDGE_CURVE('',#102,#115,#76,.T.);
#139=EDGE_CURVE('',#114,#109,#77,.T.);
#140=EDGE_CURVE('',#115,#108,#78,.T.);
#141=ORIENTED_EDGE('',*,*,#116,.F.);
#142=ORIENTED_EDGE('',*,*,#117,.F.);
#143=ORIENTED_EDGE('',*,*,#118,.F.);
#144=ORIENTED_EDGE('',*,*,#119,.F.);
#145=ORIENTED_EDGE('',*,*,#120,.F.);
#146=ORIENTED_EDGE('',*,*,#121,.F.);
#147=ORIENTED_EDGE('',*,*,#122,.F.);
#148=ORIENTED_EDGE('',*,*,#123,.T.);
#149=ORIENTED_EDGE('',*,*,#124,.F.);
#150=ORIENTED_EDGE('',*,*,#123,.F.);
#151=ORIENTED_EDGE('',*,*,#125,.F.);
#152=ORIENTED_EDGE('',*,*,#117,.T.);
#153=ORIENTED_EDGE('',*,*,#119,.T.);
#154=ORIENTED_EDGE('',*,*,#126,.F.);
#155=ORIENTED_EDGE('',*,*,#127,.T.);
#156=ORIENTED_EDGE('',*,*,#128,.T.);
#157=ORIENTED_EDGE('',*,*,#118,.T.);
#158=ORIENTED_EDGE('',*,*,#125,.T.);
#159=ORIENTED_EDGE('',*,*,#122,.T.);
#160=ORIENTED_EDGE('',*,*,#129,.F.);
#161=ORIENTED_EDGE('',*,*,#130,.F.);
#162=ORIENTED_EDGE('',*,*,#131,.T.);
#163=ORIENTED_EDGE('',*,*,#126,.T.);
#164=ORIENTED_EDGE('',*,*,#132,.T.);
#165=ORIENTED_EDGE('',*,*,#133,.F.);
#166=ORIENTED_EDGE('',*,*,#132,.F.);
#167=ORIENTED_EDGE('',*,*,#134,.T.);
#168=ORIENTED_EDGE('',*,*,#135,.F.);
#169=ORIENTED_EDGE('',*,*,#134,.F.);
#170=ORIENTED_EDGE('',*,*,#116,.T.);
#171=ORIENTED_EDGE('',*,*,#128,.F.);
#172=ORIENTED_EDGE('',*,*,#136,.T.);
#173=ORIENTED_EDGE('',*,*,#137,.T.);
#174=ORIENTED_EDGE('',*,*,#138,.F.);
#175=ORIENTED_EDGE('',*,*,#120,.T.);
#176=ORIENTED_EDGE('',*,*,#124,.T.);
#177=ORIENTED_EDGE('',*,*,#139,.T.);
#178=ORIENTED_EDGE('',*,*,#130,.T.);
#179=ORIENTED_EDGE('',*,*,#140,.F.);
#180=ORIENTED_EDGE('',*,*,#137,.F.);
#181=ORIENTED_EDGE('',*,*,#121,.T.);
#182=ORIENTED_EDGE('',*,*,#138,.T.);
#183=ORIENTED_EDGE('',*,*,#140,.T.);
#184=ORIENTED_EDGE('',*,*,#129,.T.);
#185=ORIENTED_EDGE('',*,*,#139,.F.);
#186=ORIENTED_EDGE('',*,*,#136,.F.);
#187=ORIENTED_EDGE('',*,*,#127,.F.);
#188=ORIENTED_EDGE('',*,*,#131,.F.);
#189=ORIENTED_EDGE('',*,*,#133,.T.);
#190=ORIENTED_EDGE('',*,*,#135,.T.);
#191=PLANE('',#220);
#192=PLANE('',#221);
#193=PLANE('',#225);
#194=PLANE('',#226);
#195=PLANE('',#235);
#196=PLANE('',#236);
#197=PLANE('',#237);
#198=PLANE('',#238);
#199=ADVANCED_FACE('',(#30),#191,.F.);
#200=ADVANCED_FACE('',(#31),#192,.F.);
#201=ADVANCED_FACE('',(#32),#27,.F.);
#202=ADVANCED_FACE('',(#33),#193,.T.);
#203=ADVANCED_FACE('',(#34),#194,.T.);
#204=ADVANCED_FACE('',(#35),#19,.F.);
#205=ADVANCED_FACE('',(#36,#15),#28,.F.);
#206=ADVANCED_FACE('',(#37),#20,.F.);
#207=ADVANCED_FACE('',(#38,#16),#29,.F.);
#208=ADVANCED_FACE('',(#39),#195,.T.);
#209=ADVANCED_FACE('',(#40),#196,.T.);
#210=ADVANCED_FACE('',(#41),#197,.T.);
#211=ADVANCED_FACE('',(#42,#17,#18),#198,.T.);
#212=CLOSED_SHELL('',(#199,#200,#201,#202,#203,#204,#205,#206,#207,#208,
#209,#210,#211));
#213=DATE_TIME_ROLE('creation_date');
#214=APPLIED_DATE_AND_TIME_ASSIGNMENT(#215,#213,(#369));
#215=DATE_AND_TIME(#216,#217);
#216=CALENDAR_DATE(2021,2,6);
#217=LOCAL_TIME(15,56,6.,#218);
#218=COORDINATED_UNIVERSAL_TIME_OFFSET(0,0,.BEHIND.);
#219=AXIS2_PLACEMENT_3D('placement',#298,#239,#240);
#220=AXIS2_PLACEMENT_3D('',#299,#241,#242);
#221=AXIS2_PLACEMENT_3D('',#308,#247,#248);
#222=AXIS2_PLACEMENT_3D('',#317,#253,#254);
#223=AXIS2_PLACEMENT_3D('',#318,#255,#256);
#224=AXIS2_PLACEMENT_3D('',#319,#257,#258);
#225=AXIS2_PLACEMENT_3D('',#320,#259,#260);
#226=AXIS2_PLACEMENT_3D('',#326,#264,#265);
#227=AXIS2_PLACEMENT_3D('',#332,#269,#270);
#228=AXIS2_PLACEMENT_3D('',#334,#271,#272);
#229=AXIS2_PLACEMENT_3D('',#335,#273,#274);
#230=AXIS2_PLACEMENT_3D('',#337,#275,#276);
#231=AXIS2_PLACEMENT_3D('',#338,#277,#278);
#232=AXIS2_PLACEMENT_3D('',#340,#279,#280);
#233=AXIS2_PLACEMENT_3D('',#341,#281,#282);
#234=AXIS2_PLACEMENT_3D('',#343,#283,#284);
#235=AXIS2_PLACEMENT_3D('',#344,#285,#286);
#236=AXIS2_PLACEMENT_3D('',#350,#290,#291);
#237=AXIS2_PLACEMENT_3D('',#353,#294,#295);
#238=AXIS2_PLACEMENT_3D('',#354,#296,#297);
#239=DIRECTION('axis',(0.,0.,1.));
#240=DIRECTION('refdir',(1.,0.,0.));
#241=DIRECTION('center_axis',(0.,-1.,0.));
#242=DIRECTION('ref_axis',(3.10862446895044E-16,0.,1.));
#243=DIRECTION('',(-4.36159045388454E-16,0.,-1.));
#244=DIRECTION('',(-1.,0.,2.96059473233375E-16));
#245=DIRECTION('',(3.03989637694983E-16,0.,1.));
#246=DIRECTION('',(1.,0.,0.));
#247=DIRECTION('center_axis',(2.96059473233375E-16,-3.33066907387547E-16,
1.));
#248=DIRECTION('ref_axis',(0.,1.,3.5527136788005E-16));
#249=DIRECTION('',(-1.45270144376637E-31,-1.,-3.33066907387547E-16));
#250=DIRECTION('',(-1.,0.,2.96059473233375E-16));
#251=DIRECTION('',(1.01248888504929E-31,1.,3.33066907387547E-16));
#252=DIRECTION('',(-1.,0.,2.96059473233375E-16));
#253=DIRECTION('center_axis',(-1.,0.,2.96059473233375E-16));
#254=DIRECTION('ref_axis',(2.96059473233375E-16,0.,1.));
#255=DIRECTION('center_axis',(1.,0.,-4.36159045388454E-16));
#256=DIRECTION('ref_axis',(2.96059473233375E-16,0.,1.));
#257=DIRECTION('center_axis',(-1.,0.,3.03989637694983E-16));
#258=DIRECTION('ref_axis',(2.96059473233375E-16,0.,1.));
#259=DIRECTION('center_axis',(0.,0.,-1.));
#260=DIRECTION('ref_axis',(-1.,0.,0.));
#261=DIRECTION('',(0.,1.,0.));
#262=DIRECTION('',(-1.,0.,0.));
#263=DIRECTION('',(0.,1.,0.));
#264=DIRECTION('center_axis',(1.,0.,-3.03989637694983E-16));
#265=DIRECTION('ref_axis',(-3.10862446895044E-16,0.,-1.));
#266=DIRECTION('',(-3.03989637694983E-16,0.,-1.));
#267=DIRECTION('',(0.,1.,0.));
#268=DIRECTION('',(-3.03989637694983E-16,0.,-1.));
#269=DIRECTION('center_axis',(0.,-1.,0.));
#270=DIRECTION('ref_axis',(1.,0.,0.));
#271=DIRECTION('center_axis',(0.,-1.,0.));
#272=DIRECTION('ref_axis',(1.,0.,0.));
#273=DIRECTION('center_axis',(0.,-1.,0.));
#274=DIRECTION('ref_axis',(1.,0.,0.));
#275=DIRECTION('center_axis',(0.,1.,0.));
#276=DIRECTION('ref_axis',(1.,0.,0.));
#277=DIRECTION('center_axis',(0.,-1.,0.));
#278=DIRECTION('ref_axis',(1.,0.,0.));
#279=DIRECTION('center_axis',(0.,-1.,0.));
#280=DIRECTION('ref_axis',(1.,0.,0.));
#281=DIRECTION('center_axis',(0.,-1.,0.));
#282=DIRECTION('ref_axis',(1.,0.,0.));
#283=DIRECTION('center_axis',(0.,1.,0.));
#284=DIRECTION('ref_axis',(1.,0.,0.));
#285=DIRECTION('center_axis',(-1.,0.,4.36159045388454E-16));
#286=DIRECTION('ref_axis',(4.44089209850063E-16,0.,1.));
#287=DIRECTION('',(4.36159045388454E-16,0.,1.));
#288=DIRECTION('',(0.,1.,0.));
#289=DIRECTION('',(4.36159045388454E-16,0.,1.));
#290=DIRECTION('center_axis',(0.,0.,1.));
#291=DIRECTION('ref_axis',(1.,0.,0.));
#292=DIRECTION('',(1.,0.,0.));
#293=DIRECTION('',(1.,0.,0.));
#294=DIRECTION('center_axis',(0.,1.,0.));
#295=DIRECTION('ref_axis',(0.,0.,1.));
#296=DIRECTION('center_axis',(0.,-1.,0.));
#297=DIRECTION('ref_axis',(0.,0.,-1.));
#298=CARTESIAN_POINT('',(0.,0.,0.));
#299=CARTESIAN_POINT('Origin',(2.5,18.,-10.5));
#300=CARTESIAN_POINT('',(-2.5,18.,3.5));
#301=CARTESIAN_POINT('',(-2.5,18.,-10.5));
#302=CARTESIAN_POINT('',(-2.5,18.,-10.5));
#303=CARTESIAN_POINT('',(2.5,18.,3.5));
#304=CARTESIAN_POINT('',(2.5,18.,3.5));
#305=CARTESIAN_POINT('',(2.5,18.,-10.5));
#306=CARTESIAN_POINT('',(2.5,18.,-4.44089209850063E-15));
#307=CARTESIAN_POINT('',(2.5,18.,-10.5));
#308=CARTESIAN_POINT('Origin',(2.5,20.,5.5));
#309=CARTESIAN_POINT('',(-2.5,30.,5.5));
#310=CARTESIAN_POINT('',(-2.5,20.,5.5));
#311=CARTESIAN_POINT('',(-2.5,10.,5.5));
#312=CARTESIAN_POINT('',(2.5,30.,5.5));
#313=CARTESIAN_POINT('',(1.25,30.,5.5));
#314=CARTESIAN_POINT('',(2.5,20.,5.5));
#315=CARTESIAN_POINT('',(2.5,10.,5.49999999999999));
#316=CARTESIAN_POINT('',(2.5,20.,5.5));
#317=CARTESIAN_POINT('Origin',(2.5,20.,3.5));
#318=CARTESIAN_POINT('Origin',(-2.5,20.,3.5));
#319=CARTESIAN_POINT('Origin',(2.5,20.,3.5));
#320=CARTESIAN_POINT('Origin',(2.5,0.,-10.5));
#321=CARTESIAN_POINT('',(2.5,0.,-10.5));
#322=CARTESIAN_POINT('',(2.5,0.,-10.5));
#323=CARTESIAN_POINT('',(-2.5,0.,-10.5));
#324=CARTESIAN_POINT('',(2.5,0.,-10.5));
#325=CARTESIAN_POINT('',(-2.5,0.,-10.5));
#326=CARTESIAN_POINT('Origin',(2.5,0.,10.5));
#327=CARTESIAN_POINT('',(2.5,30.,10.5));
#328=CARTESIAN_POINT('',(2.5,30.,10.5));
#329=CARTESIAN_POINT('',(2.5,0.,10.5));
#330=CARTESIAN_POINT('',(2.5,0.,10.5));
#331=CARTESIAN_POINT('',(2.5,0.,10.5));
#332=CARTESIAN_POINT('Origin',(0.,8.23538714750405,6.));
#333=CARTESIAN_POINT('',(0.7835,8.,6.));
#334=CARTESIAN_POINT('Origin',(0.,8.,6.));
#335=CARTESIAN_POINT('Origin',(0.,4.,6.));
#336=CARTESIAN_POINT('',(0.7835,0.,6.));
#337=CARTESIAN_POINT('Origin',(0.,0.,6.));
#338=CARTESIAN_POINT('Origin',(0.,8.23538714750405,-6.));
#339=CARTESIAN_POINT('',(0.7835,8.,-6.));
#340=CARTESIAN_POINT('Origin',(0.,8.,-6.));
#341=CARTESIAN_POINT('Origin',(0.,4.,-6.));
#342=CARTESIAN_POINT('',(0.7835,0.,-6.));
#343=CARTESIAN_POINT('Origin',(0.,0.,-6.));
#344=CARTESIAN_POINT('Origin',(-2.5,0.,-10.5));
#345=CARTESIAN_POINT('',(-2.5,0.,10.5));
#346=CARTESIAN_POINT('',(-2.5,0.,-10.5));
#347=CARTESIAN_POINT('',(-2.5,30.,10.5));
#348=CARTESIAN_POINT('',(-2.5,0.,10.5));
#349=CARTESIAN_POINT('',(-2.5,30.,-10.5));
#350=CARTESIAN_POINT('Origin',(-2.5,0.,10.5));
#351=CARTESIAN_POINT('',(-2.5,0.,10.5));
#352=CARTESIAN_POINT('',(-2.5,30.,10.5));
#353=CARTESIAN_POINT('Origin',(-5.55111512312578E-16,30.,-2.22044604925031E-15));
#354=CARTESIAN_POINT('Origin',(-6.4051328343759E-16,0.,-2.658130126266E-15));
#355=UNCERTAINTY_MEASURE_WITH_UNIT(LENGTH_MEASURE(0.01),#359,
'DISTANCE_ACCURACY_VALUE',
'Maximum model space distance between geometric entities at asserted c
onnectivities');
#356=UNCERTAINTY_MEASURE_WITH_UNIT(LENGTH_MEASURE(1.E-6),#359,
'DISTANCE_ACCURACY_VALUE',
'Maximum model space distance between geometric entities at asserted c
onnectivities');
#357=(
GEOMETRIC_REPRESENTATION_CONTEXT(3)
GLOBAL_UNCERTAINTY_ASSIGNED_CONTEXT((#355))
GLOBAL_UNIT_ASSIGNED_CONTEXT((#359,#362,#360))
REPRESENTATION_CONTEXT('','3D')
);
#358=(
GEOMETRIC_REPRESENTATION_CONTEXT(3)
GLOBAL_UNCERTAINTY_ASSIGNED_CONTEXT((#356))
GLOBAL_UNIT_ASSIGNED_CONTEXT((#359,#362,#360))
REPRESENTATION_CONTEXT('','3D')
);
#359=(
LENGTH_UNIT()
NAMED_UNIT(*)
SI_UNIT(.MILLI.,.METRE.)
);
#360=(
NAMED_UNIT(*)
SI_UNIT($,.STERADIAN.)
SOLID_ANGLE_UNIT()
);
#361=DIMENSIONAL_EXPONENTS(0.,0.,0.,0.,0.,0.,0.);
#362=(
CONVERSION_BASED_UNIT('degree',#364)
NAMED_UNIT(#361)
PLANE_ANGLE_UNIT()
);
#363=(
NAMED_UNIT(*)
PLANE_ANGLE_UNIT()
SI_UNIT($,.RADIAN.)
);
#364=PLANE_ANGLE_MEASURE_WITH_UNIT(PLANE_ANGLE_MEASURE(0.01745329252),#363);
#365=SHAPE_DEFINITION_REPRESENTATION(#366,#367);
#366=PRODUCT_DEFINITION_SHAPE('',$,#369);
#367=SHAPE_REPRESENTATION('',(#219),#357);
#368=PRODUCT_DEFINITION_CONTEXT('part definition',#373,'design');
#369=PRODUCT_DEFINITION('ObjectiveHolder-Tail2','ObjectiveHolder-Tail2',
#370,#368);
#370=PRODUCT_DEFINITION_FORMATION('',$,#375);
#371=PRODUCT_RELATED_PRODUCT_CATEGORY('ObjectiveHolder-Tail2',
'ObjectiveHolder-Tail2',(#375));
#372=APPLICATION_PROTOCOL_DEFINITION('international standard',
'automotive_design',2009,#373);
#373=APPLICATION_CONTEXT(
'Core Data for Automotive Mechanical Design Process');
#374=PRODUCT_CONTEXT('part definition',#373,'mechanical');
#375=PRODUCT('ObjectiveHolder-Tail2','ObjectiveHolder-Tail2',$,(#374));
#376=PRESENTATION_STYLE_ASSIGNMENT((#377));
#377=SURFACE_STYLE_USAGE(.BOTH.,#378);
#378=SURFACE_SIDE_STYLE('',(#379));
#379=SURFACE_STYLE_FILL_AREA(#380);
#380=FILL_AREA_STYLE('',(#381));
#381=FILL_AREA_STYLE_COLOUR('',#382);
#382=COLOUR_RGB('',0.956862745098039,0.956862745098039,0.956862745098039);
ENDSEC;
END-ISO-10303-21;
