ISO-10303-21;
HEADER;
/* Generated by software containing ST-Developer
 * from STEP Tools, Inc. (www.steptools.com) 
 */

FILE_DESCRIPTION(
/* description */ (''),
/* implementation_level */ '2;1');

FILE_NAME(
/* name */ 
'C:\\Users\\Charl\X\E8ne Brillard\\Desktop\\GHOSTINTHESHELL\\LM\\OpenS
PIM\\CAD\\Website\\ThermalIsolationObjectiveHolder.stp',
/* time_stamp */ '2021-08-30T16:46:38+02:00',
/* author */ ('Charlene Brillard'),
/* organization */ (''),
/* preprocessor_version */ 'ST-DEVELOPER v16.5',
/* originating_system */ 'Autodesk Inventor 2017',
/* authorisation */ '');

FILE_SCHEMA (('AUTOMOTIVE_DESIGN { 1 0 10303 214 3 1 1 }'));
ENDSEC;

DATA;
#10=MECHANICAL_DESIGN_GEOMETRIC_PRESENTATION_REPRESENTATION('',(#13),#249);
#11=SHAPE_REPRESENTATION_RELATIONSHIP('SRR','None',#258,#12);
#12=ADVANCED_BREP_SHAPE_REPRESENTATION('',(#14),#248);
#13=STYLED_ITEM('',(#267),#14);
#14=MANIFOLD_SOLID_BREP('Solid1',#143);
#15=LINE('',#220,#19);
#16=LINE('',#222,#20);
#17=LINE('',#224,#21);
#18=LINE('',#225,#22);
#19=VECTOR('',#179,10.);
#20=VECTOR('',#180,10.);
#21=VECTOR('',#181,10.);
#22=VECTOR('',#182,10.);
#23=PLANE('',#154);
#24=PLANE('',#164);
#25=PLANE('',#168);
#26=FACE_BOUND('',#47,.T.);
#27=FACE_BOUND('',#50,.T.);
#28=FACE_BOUND('',#52,.T.);
#29=FACE_BOUND('',#55,.T.);
#30=FACE_BOUND('',#56,.T.);
#31=FACE_BOUND('',#57,.T.);
#32=FACE_BOUND('',#58,.T.);
#33=FACE_BOUND('',#60,.T.);
#34=FACE_BOUND('',#62,.T.);
#35=FACE_BOUND('',#63,.T.);
#36=FACE_BOUND('',#64,.T.);
#37=FACE_BOUND('',#65,.T.);
#38=FACE_OUTER_BOUND('',#46,.T.);
#39=FACE_OUTER_BOUND('',#48,.T.);
#40=FACE_OUTER_BOUND('',#49,.T.);
#41=FACE_OUTER_BOUND('',#51,.T.);
#42=FACE_OUTER_BOUND('',#53,.T.);
#43=FACE_OUTER_BOUND('',#54,.T.);
#44=FACE_OUTER_BOUND('',#59,.T.);
#45=FACE_OUTER_BOUND('',#61,.T.);
#46=EDGE_LOOP('',(#102));
#47=EDGE_LOOP('',(#103));
#48=EDGE_LOOP('',(#104,#105,#106,#107));
#49=EDGE_LOOP('',(#108));
#50=EDGE_LOOP('',(#109));
#51=EDGE_LOOP('',(#110));
#52=EDGE_LOOP('',(#111));
#53=EDGE_LOOP('',(#112,#113,#114,#115));
#54=EDGE_LOOP('',(#116,#117));
#55=EDGE_LOOP('',(#118));
#56=EDGE_LOOP('',(#119));
#57=EDGE_LOOP('',(#120));
#58=EDGE_LOOP('',(#121));
#59=EDGE_LOOP('',(#122));
#60=EDGE_LOOP('',(#123));
#61=EDGE_LOOP('',(#124,#125));
#62=EDGE_LOOP('',(#126));
#63=EDGE_LOOP('',(#127));
#64=EDGE_LOOP('',(#128));
#65=EDGE_LOOP('',(#129));
#66=CIRCLE('',#152,1.7);
#67=CIRCLE('',#153,1.7);
#68=CIRCLE('',#156,1.7);
#69=CIRCLE('',#157,1.7);
#70=CIRCLE('',#159,1.7);
#71=CIRCLE('',#160,1.7);
#72=CIRCLE('',#162,19.8);
#73=CIRCLE('',#163,19.8);
#74=CIRCLE('',#165,14.1);
#75=CIRCLE('',#167,14.1);
#76=VERTEX_POINT('',#213);
#77=VERTEX_POINT('',#215);
#78=VERTEX_POINT('',#218);
#79=VERTEX_POINT('',#219);
#80=VERTEX_POINT('',#221);
#81=VERTEX_POINT('',#223);
#82=VERTEX_POINT('',#227);
#83=VERTEX_POINT('',#229);
#84=VERTEX_POINT('',#232);
#85=VERTEX_POINT('',#234);
#86=VERTEX_POINT('',#240);
#87=VERTEX_POINT('',#243);
#88=EDGE_CURVE('',#76,#76,#66,.T.);
#89=EDGE_CURVE('',#77,#77,#67,.T.);
#90=EDGE_CURVE('',#78,#79,#15,.T.);
#91=EDGE_CURVE('',#80,#78,#16,.T.);
#92=EDGE_CURVE('',#81,#80,#17,.T.);
#93=EDGE_CURVE('',#79,#81,#18,.T.);
#94=EDGE_CURVE('',#82,#82,#68,.T.);
#95=EDGE_CURVE('',#83,#83,#69,.T.);
#96=EDGE_CURVE('',#84,#84,#70,.T.);
#97=EDGE_CURVE('',#85,#85,#71,.T.);
#98=EDGE_CURVE('',#81,#80,#72,.T.);
#99=EDGE_CURVE('',#79,#78,#73,.T.);
#100=EDGE_CURVE('',#86,#86,#74,.T.);
#101=EDGE_CURVE('',#87,#87,#75,.T.);
#102=ORIENTED_EDGE('',*,*,#88,.F.);
#103=ORIENTED_EDGE('',*,*,#89,.F.);
#104=ORIENTED_EDGE('',*,*,#90,.F.);
#105=ORIENTED_EDGE('',*,*,#91,.F.);
#106=ORIENTED_EDGE('',*,*,#92,.F.);
#107=ORIENTED_EDGE('',*,*,#93,.F.);
#108=ORIENTED_EDGE('',*,*,#94,.F.);
#109=ORIENTED_EDGE('',*,*,#95,.F.);
#110=ORIENTED_EDGE('',*,*,#96,.F.);
#111=ORIENTED_EDGE('',*,*,#97,.F.);
#112=ORIENTED_EDGE('',*,*,#93,.T.);
#113=ORIENTED_EDGE('',*,*,#98,.T.);
#114=ORIENTED_EDGE('',*,*,#91,.T.);
#115=ORIENTED_EDGE('',*,*,#99,.F.);
#116=ORIENTED_EDGE('',*,*,#92,.T.);
#117=ORIENTED_EDGE('',*,*,#98,.F.);
#118=ORIENTED_EDGE('',*,*,#100,.T.);
#119=ORIENTED_EDGE('',*,*,#97,.T.);
#120=ORIENTED_EDGE('',*,*,#95,.T.);
#121=ORIENTED_EDGE('',*,*,#89,.T.);
#122=ORIENTED_EDGE('',*,*,#101,.F.);
#123=ORIENTED_EDGE('',*,*,#100,.F.);
#124=ORIENTED_EDGE('',*,*,#90,.T.);
#125=ORIENTED_EDGE('',*,*,#99,.T.);
#126=ORIENTED_EDGE('',*,*,#88,.T.);
#127=ORIENTED_EDGE('',*,*,#94,.T.);
#128=ORIENTED_EDGE('',*,*,#96,.T.);
#129=ORIENTED_EDGE('',*,*,#101,.T.);
#130=CYLINDRICAL_SURFACE('',#151,1.7);
#131=CYLINDRICAL_SURFACE('',#155,1.7);
#132=CYLINDRICAL_SURFACE('',#158,1.7);
#133=CYLINDRICAL_SURFACE('',#161,19.8);
#134=CYLINDRICAL_SURFACE('',#166,14.1);
#135=ADVANCED_FACE('',(#38,#26),#130,.F.);
#136=ADVANCED_FACE('',(#39),#23,.F.);
#137=ADVANCED_FACE('',(#40,#27),#131,.F.);
#138=ADVANCED_FACE('',(#41,#28),#132,.F.);
#139=ADVANCED_FACE('',(#42),#133,.T.);
#140=ADVANCED_FACE('',(#43,#29,#30,#31,#32),#24,.F.);
#141=ADVANCED_FACE('',(#44,#33),#134,.F.);
#142=ADVANCED_FACE('',(#45,#34,#35,#36,#37),#25,.T.);
#143=CLOSED_SHELL('',(#135,#136,#137,#138,#139,#140,#141,#142));
#144=DATE_TIME_ROLE('creation_date');
#145=APPLIED_DATE_AND_TIME_ASSIGNMENT(#146,#144,(#260));
#146=DATE_AND_TIME(#147,#148);
#147=CALENDAR_DATE(2021,23,6);
#148=LOCAL_TIME(9,54,44.,#149);
#149=COORDINATED_UNIVERSAL_TIME_OFFSET(0,0,.BEHIND.);
#150=AXIS2_PLACEMENT_3D('placement',#211,#169,#170);
#151=AXIS2_PLACEMENT_3D('',#212,#171,#172);
#152=AXIS2_PLACEMENT_3D('',#214,#173,#174);
#153=AXIS2_PLACEMENT_3D('',#216,#175,#176);
#154=AXIS2_PLACEMENT_3D('',#217,#177,#178);
#155=AXIS2_PLACEMENT_3D('',#226,#183,#184);
#156=AXIS2_PLACEMENT_3D('',#228,#185,#186);
#157=AXIS2_PLACEMENT_3D('',#230,#187,#188);
#158=AXIS2_PLACEMENT_3D('',#231,#189,#190);
#159=AXIS2_PLACEMENT_3D('',#233,#191,#192);
#160=AXIS2_PLACEMENT_3D('',#235,#193,#194);
#161=AXIS2_PLACEMENT_3D('',#236,#195,#196);
#162=AXIS2_PLACEMENT_3D('',#237,#197,#198);
#163=AXIS2_PLACEMENT_3D('',#238,#199,#200);
#164=AXIS2_PLACEMENT_3D('',#239,#201,#202);
#165=AXIS2_PLACEMENT_3D('',#241,#203,#204);
#166=AXIS2_PLACEMENT_3D('',#242,#205,#206);
#167=AXIS2_PLACEMENT_3D('',#244,#207,#208);
#168=AXIS2_PLACEMENT_3D('',#245,#209,#210);
#169=DIRECTION('axis',(0.,0.,1.));
#170=DIRECTION('refdir',(1.,0.,0.));
#171=DIRECTION('center_axis',(0.,0.,1.));
#172=DIRECTION('ref_axis',(1.,0.,0.));
#173=DIRECTION('center_axis',(0.,0.,-1.));
#174=DIRECTION('ref_axis',(1.,0.,0.));
#175=DIRECTION('center_axis',(0.,0.,1.));
#176=DIRECTION('ref_axis',(1.,0.,0.));
#177=DIRECTION('center_axis',(0.,1.,0.));
#178=DIRECTION('ref_axis',(-1.,0.,0.));
#179=DIRECTION('',(1.,0.,0.));
#180=DIRECTION('',(0.,0.,1.));
#181=DIRECTION('',(-1.,0.,0.));
#182=DIRECTION('',(0.,0.,-1.));
#183=DIRECTION('center_axis',(0.,0.,1.));
#184=DIRECTION('ref_axis',(1.,0.,0.));
#185=DIRECTION('center_axis',(0.,0.,-1.));
#186=DIRECTION('ref_axis',(1.,0.,0.));
#187=DIRECTION('center_axis',(0.,0.,1.));
#188=DIRECTION('ref_axis',(1.,0.,0.));
#189=DIRECTION('center_axis',(0.,0.,1.));
#190=DIRECTION('ref_axis',(1.,0.,0.));
#191=DIRECTION('center_axis',(0.,0.,-1.));
#192=DIRECTION('ref_axis',(1.,0.,0.));
#193=DIRECTION('center_axis',(0.,0.,1.));
#194=DIRECTION('ref_axis',(1.,0.,0.));
#195=DIRECTION('center_axis',(0.,0.,1.));
#196=DIRECTION('ref_axis',(0.537232266636581,-0.843434343434343,0.));
#197=DIRECTION('center_axis',(0.,0.,1.));
#198=DIRECTION('ref_axis',(0.537232266636581,-0.843434343434343,0.));
#199=DIRECTION('center_axis',(0.,0.,1.));
#200=DIRECTION('ref_axis',(0.537232266636581,-0.843434343434343,0.));
#201=DIRECTION('center_axis',(0.,0.,1.));
#202=DIRECTION('ref_axis',(1.,0.,0.));
#203=DIRECTION('center_axis',(0.,0.,1.));
#204=DIRECTION('ref_axis',(-1.,0.,0.));
#205=DIRECTION('center_axis',(0.,0.,1.));
#206=DIRECTION('ref_axis',(-1.,0.,0.));
#207=DIRECTION('center_axis',(0.,0.,-1.));
#208=DIRECTION('ref_axis',(-1.,0.,0.));
#209=DIRECTION('center_axis',(0.,0.,1.));
#210=DIRECTION('ref_axis',(1.,0.,0.));
#211=CARTESIAN_POINT('',(0.,0.,0.));
#212=CARTESIAN_POINT('Origin',(15.4333243340506,-8.25000000000007,0.));
#213=CARTESIAN_POINT('',(13.7333243340506,-8.25000000000007,1.));
#214=CARTESIAN_POINT('Origin',(15.4333243340506,-8.25000000000007,1.));
#215=CARTESIAN_POINT('',(13.7333243340506,-8.25000000000007,0.));
#216=CARTESIAN_POINT('Origin',(15.4333243340506,-8.25000000000007,0.));
#217=CARTESIAN_POINT('Origin',(12.0644104704706,-15.7,0.));
#218=CARTESIAN_POINT('',(-12.0644104704706,-15.7,1.));
#219=CARTESIAN_POINT('',(12.0644104704706,-15.7,1.));
#220=CARTESIAN_POINT('',(6.03220523523529,-15.7,1.));
#221=CARTESIAN_POINT('',(-12.0644104704706,-15.7,0.));
#222=CARTESIAN_POINT('',(-12.0644104704706,-15.7,0.));
#223=CARTESIAN_POINT('',(12.0644104704706,-15.7,0.));
#224=CARTESIAN_POINT('',(6.03220523523529,-15.7,0.));
#225=CARTESIAN_POINT('',(12.0644104704706,-15.7,0.));
#226=CARTESIAN_POINT('Origin',(-15.4333243340507,-8.24999999999997,0.));
#227=CARTESIAN_POINT('',(-17.1333243340507,-8.24999999999997,1.));
#228=CARTESIAN_POINT('Origin',(-15.4333243340507,-8.24999999999997,1.));
#229=CARTESIAN_POINT('',(-17.1333243340507,-8.24999999999997,0.));
#230=CARTESIAN_POINT('Origin',(-15.4333243340507,-8.24999999999997,0.));
#231=CARTESIAN_POINT('Origin',(-5.77315972805081E-14,17.5,0.));
#232=CARTESIAN_POINT('',(-1.70000000000006,17.5,1.));
#233=CARTESIAN_POINT('Origin',(-5.77315972805081E-14,17.5,1.));
#234=CARTESIAN_POINT('',(-1.70000000000006,17.5,0.));
#235=CARTESIAN_POINT('Origin',(-5.77315972805081E-14,17.5,0.));
#236=CARTESIAN_POINT('Origin',(0.,0.,0.));
#237=CARTESIAN_POINT('Origin',(0.,0.,0.));
#238=CARTESIAN_POINT('Origin',(0.,0.,1.));
#239=CARTESIAN_POINT('Origin',(4.65807395554771E-16,-0.402695547947507,
0.));
#240=CARTESIAN_POINT('',(14.1,1.72675198679777E-15,0.));
#241=CARTESIAN_POINT('Origin',(0.,0.,0.));
#242=CARTESIAN_POINT('Origin',(0.,0.,0.));
#243=CARTESIAN_POINT('',(14.1,1.72675198679777E-15,1.));
#244=CARTESIAN_POINT('Origin',(0.,0.,1.));
#245=CARTESIAN_POINT('Origin',(4.65807395554771E-16,-0.402695547947507,
1.));
#246=UNCERTAINTY_MEASURE_WITH_UNIT(LENGTH_MEASURE(0.01),#250,
'DISTANCE_ACCURACY_VALUE',
'Maximum model space distance between geometric entities at asserted c
onnectivities');
#247=UNCERTAINTY_MEASURE_WITH_UNIT(LENGTH_MEASURE(1.E-6),#250,
'DISTANCE_ACCURACY_VALUE',
'Maximum model space distance between geometric entities at asserted c
onnectivities');
#248=(
GEOMETRIC_REPRESENTATION_CONTEXT(3)
GLOBAL_UNCERTAINTY_ASSIGNED_CONTEXT((#246))
GLOBAL_UNIT_ASSIGNED_CONTEXT((#250,#253,#251))
REPRESENTATION_CONTEXT('','3D')
);
#249=(
GEOMETRIC_REPRESENTATION_CONTEXT(3)
GLOBAL_UNCERTAINTY_ASSIGNED_CONTEXT((#247))
GLOBAL_UNIT_ASSIGNED_CONTEXT((#250,#253,#251))
REPRESENTATION_CONTEXT('','3D')
);
#250=(
LENGTH_UNIT()
NAMED_UNIT(*)
SI_UNIT(.MILLI.,.METRE.)
);
#251=(
NAMED_UNIT(*)
SI_UNIT($,.STERADIAN.)
SOLID_ANGLE_UNIT()
);
#252=DIMENSIONAL_EXPONENTS(0.,0.,0.,0.,0.,0.,0.);
#253=(
CONVERSION_BASED_UNIT('degree',#255)
NAMED_UNIT(#252)
PLANE_ANGLE_UNIT()
);
#254=(
NAMED_UNIT(*)
PLANE_ANGLE_UNIT()
SI_UNIT($,.RADIAN.)
);
#255=PLANE_ANGLE_MEASURE_WITH_UNIT(PLANE_ANGLE_MEASURE(0.01745329252),#254);
#256=SHAPE_DEFINITION_REPRESENTATION(#257,#258);
#257=PRODUCT_DEFINITION_SHAPE('',$,#260);
#258=SHAPE_REPRESENTATION('',(#150),#248);
#259=PRODUCT_DEFINITION_CONTEXT('part definition',#264,'design');
#260=PRODUCT_DEFINITION('ThermalIsolationObjectiveHolder',
'ThermalIsolationObjectiveHolder',#261,#259);
#261=PRODUCT_DEFINITION_FORMATION('',$,#266);
#262=PRODUCT_RELATED_PRODUCT_CATEGORY('ThermalIsolationObjectiveHolder',
'ThermalIsolationObjectiveHolder',(#266));
#263=APPLICATION_PROTOCOL_DEFINITION('international standard',
'automotive_design',2009,#264);
#264=APPLICATION_CONTEXT(
'Core Data for Automotive Mechanical Design Process');
#265=PRODUCT_CONTEXT('part definition',#264,'mechanical');
#266=PRODUCT('ThermalIsolationObjectiveHolder',
'ThermalIsolationObjectiveHolder',$,(#265));
#267=PRESENTATION_STYLE_ASSIGNMENT((#268));
#268=SURFACE_STYLE_USAGE(.BOTH.,#269);
#269=SURFACE_SIDE_STYLE('',(#270));
#270=SURFACE_STYLE_FILL_AREA(#271);
#271=FILL_AREA_STYLE('',(#272));
#272=FILL_AREA_STYLE_COLOUR('',#273);
#273=COLOUR_RGB('',0.92156862745098,0.92156862745098,0.92156862745098);
ENDSEC;
END-ISO-10303-21;
