ISO-10303-21;
HEADER;
/* Generated by software containing ST-Developer
 * from STEP Tools, Inc. (www.steptools.com) 
 */

FILE_DESCRIPTION(
/* description */ (''),
/* implementation_level */ '2;1');

FILE_NAME(
/* name */ 
'C:\\Users\\Charl\X\E8ne Brillard\\Desktop\\GHOSTINTHESHELL\\LM\\OpenS
PIM\\CAD\\Website\\CoolingPlate-40mmPeltier.stp',
/* time_stamp */ '2021-08-30T14:18:11+02:00',
/* author */ ('Charlene Brillard'),
/* organization */ (''),
/* preprocessor_version */ 'ST-DEVELOPER v16.5',
/* originating_system */ 'Autodesk Inventor 2017',
/* authorisation */ '');

FILE_SCHEMA (('AUTOMOTIVE_DESIGN { 1 0 10303 214 3 1 1 }'));
ENDSEC;

DATA;
#10=MECHANICAL_DESIGN_GEOMETRIC_PRESENTATION_REPRESENTATION('',(#13),#665);
#11=SHAPE_REPRESENTATION_RELATIONSHIP('SRR','None',#674,#12);
#12=ADVANCED_BREP_SHAPE_REPRESENTATION('',(#14),#664);
#13=STYLED_ITEM('',(#683),#14);
#14=MANIFOLD_SOLID_BREP('Solid1',#391);
#15=CONICAL_SURFACE('',#428,2.6,45.);
#16=CONICAL_SURFACE('',#432,2.6,45.);
#17=CONICAL_SURFACE('',#436,2.6,45.);
#18=CONICAL_SURFACE('',#440,2.6,45.);
#19=FACE_BOUND('',#85,.T.);
#20=FACE_BOUND('',#86,.T.);
#21=FACE_BOUND('',#87,.T.);
#22=FACE_BOUND('',#88,.T.);
#23=FACE_BOUND('',#89,.T.);
#24=FACE_BOUND('',#90,.T.);
#25=FACE_BOUND('',#91,.T.);
#26=FACE_BOUND('',#92,.T.);
#27=FACE_BOUND('',#95,.T.);
#28=FACE_BOUND('',#97,.T.);
#29=FACE_BOUND('',#99,.T.);
#30=FACE_BOUND('',#101,.T.);
#31=FACE_BOUND('',#103,.T.);
#32=FACE_BOUND('',#105,.T.);
#33=FACE_BOUND('',#107,.T.);
#34=FACE_BOUND('',#109,.T.);
#35=FACE_BOUND('',#111,.T.);
#36=FACE_BOUND('',#113,.T.);
#37=FACE_BOUND('',#115,.T.);
#38=FACE_BOUND('',#117,.T.);
#39=FACE_BOUND('',#119,.T.);
#40=FACE_BOUND('',#120,.T.);
#41=FACE_BOUND('',#121,.T.);
#42=FACE_BOUND('',#122,.T.);
#43=FACE_BOUND('',#123,.T.);
#44=FACE_BOUND('',#124,.T.);
#45=FACE_BOUND('',#125,.T.);
#46=FACE_BOUND('',#126,.T.);
#47=PLANE('',#402);
#48=PLANE('',#403);
#49=PLANE('',#407);
#50=PLANE('',#408);
#51=PLANE('',#409);
#52=PLANE('',#410);
#53=PLANE('',#419);
#54=PLANE('',#444);
#55=FACE_OUTER_BOUND('',#77,.T.);
#56=FACE_OUTER_BOUND('',#78,.T.);
#57=FACE_OUTER_BOUND('',#79,.T.);
#58=FACE_OUTER_BOUND('',#80,.T.);
#59=FACE_OUTER_BOUND('',#81,.T.);
#60=FACE_OUTER_BOUND('',#82,.T.);
#61=FACE_OUTER_BOUND('',#83,.T.);
#62=FACE_OUTER_BOUND('',#84,.T.);
#63=FACE_OUTER_BOUND('',#93,.T.);
#64=FACE_OUTER_BOUND('',#94,.T.);
#65=FACE_OUTER_BOUND('',#96,.T.);
#66=FACE_OUTER_BOUND('',#98,.T.);
#67=FACE_OUTER_BOUND('',#100,.T.);
#68=FACE_OUTER_BOUND('',#102,.T.);
#69=FACE_OUTER_BOUND('',#104,.T.);
#70=FACE_OUTER_BOUND('',#106,.T.);
#71=FACE_OUTER_BOUND('',#108,.T.);
#72=FACE_OUTER_BOUND('',#110,.T.);
#73=FACE_OUTER_BOUND('',#112,.T.);
#74=FACE_OUTER_BOUND('',#114,.T.);
#75=FACE_OUTER_BOUND('',#116,.T.);
#76=FACE_OUTER_BOUND('',#118,.T.);
#77=EDGE_LOOP('',(#271,#272,#273,#274));
#78=EDGE_LOOP('',(#275,#276,#277,#278));
#79=EDGE_LOOP('',(#279,#280,#281,#282));
#80=EDGE_LOOP('',(#283,#284,#285,#286));
#81=EDGE_LOOP('',(#287,#288,#289,#290));
#82=EDGE_LOOP('',(#291,#292,#293,#294));
#83=EDGE_LOOP('',(#295,#296,#297,#298));
#84=EDGE_LOOP('',(#299,#300,#301,#302,#303,#304,#305,#306));
#85=EDGE_LOOP('',(#307));
#86=EDGE_LOOP('',(#308));
#87=EDGE_LOOP('',(#309));
#88=EDGE_LOOP('',(#310));
#89=EDGE_LOOP('',(#311));
#90=EDGE_LOOP('',(#312));
#91=EDGE_LOOP('',(#313));
#92=EDGE_LOOP('',(#314));
#93=EDGE_LOOP('',(#315,#316,#317,#318));
#94=EDGE_LOOP('',(#319));
#95=EDGE_LOOP('',(#320));
#96=EDGE_LOOP('',(#321));
#97=EDGE_LOOP('',(#322));
#98=EDGE_LOOP('',(#323));
#99=EDGE_LOOP('',(#324));
#100=EDGE_LOOP('',(#325));
#101=EDGE_LOOP('',(#326));
#102=EDGE_LOOP('',(#327));
#103=EDGE_LOOP('',(#328));
#104=EDGE_LOOP('',(#329));
#105=EDGE_LOOP('',(#330));
#106=EDGE_LOOP('',(#331));
#107=EDGE_LOOP('',(#332));
#108=EDGE_LOOP('',(#333));
#109=EDGE_LOOP('',(#334));
#110=EDGE_LOOP('',(#335));
#111=EDGE_LOOP('',(#336));
#112=EDGE_LOOP('',(#337));
#113=EDGE_LOOP('',(#338));
#114=EDGE_LOOP('',(#339));
#115=EDGE_LOOP('',(#340));
#116=EDGE_LOOP('',(#341));
#117=EDGE_LOOP('',(#342));
#118=EDGE_LOOP('',(#343,#344,#345,#346,#347,#348,#349,#350));
#119=EDGE_LOOP('',(#351));
#120=EDGE_LOOP('',(#352));
#121=EDGE_LOOP('',(#353));
#122=EDGE_LOOP('',(#354));
#123=EDGE_LOOP('',(#355));
#124=EDGE_LOOP('',(#356));
#125=EDGE_LOOP('',(#357));
#126=EDGE_LOOP('',(#358));
#127=LINE('',#565,#147);
#128=LINE('',#568,#148);
#129=LINE('',#571,#149);
#130=LINE('',#573,#150);
#131=LINE('',#574,#151);
#132=LINE('',#577,#152);
#133=LINE('',#579,#153);
#134=LINE('',#580,#154);
#135=LINE('',#586,#155);
#136=LINE('',#589,#156);
#137=LINE('',#592,#157);
#138=LINE('',#594,#158);
#139=LINE('',#595,#159);
#140=LINE('',#598,#160);
#141=LINE('',#600,#161);
#142=LINE('',#601,#162);
#143=LINE('',#603,#163);
#144=LINE('',#604,#164);
#145=LINE('',#606,#165);
#146=LINE('',#624,#166);
#147=VECTOR('',#451,10.);
#148=VECTOR('',#454,10.);
#149=VECTOR('',#457,10.);
#150=VECTOR('',#458,10.);
#151=VECTOR('',#459,10.);
#152=VECTOR('',#462,10.);
#153=VECTOR('',#463,10.);
#154=VECTOR('',#464,10.);
#155=VECTOR('',#469,10.);
#156=VECTOR('',#472,10.);
#157=VECTOR('',#475,10.);
#158=VECTOR('',#476,10.);
#159=VECTOR('',#477,10.);
#160=VECTOR('',#480,10.);
#161=VECTOR('',#481,10.);
#162=VECTOR('',#482,10.);
#163=VECTOR('',#485,10.);
#164=VECTOR('',#486,10.);
#165=VECTOR('',#489,10.);
#166=VECTOR('',#508,10.);
#167=CIRCLE('',#400,46.);
#168=CIRCLE('',#401,46.);
#169=CIRCLE('',#405,46.);
#170=CIRCLE('',#406,46.);
#171=CIRCLE('',#411,3.5);
#172=CIRCLE('',#412,3.5);
#173=CIRCLE('',#413,3.5);
#174=CIRCLE('',#414,3.5);
#175=CIRCLE('',#415,1.2295);
#176=CIRCLE('',#416,1.2295);
#177=CIRCLE('',#417,1.2295);
#178=CIRCLE('',#418,1.2295);
#179=CIRCLE('',#421,1.2295);
#180=CIRCLE('',#423,1.2295);
#181=CIRCLE('',#425,1.2295);
#182=CIRCLE('',#427,1.2295);
#183=CIRCLE('',#429,1.7);
#184=CIRCLE('',#431,1.7);
#185=CIRCLE('',#433,1.7);
#186=CIRCLE('',#435,1.7);
#187=CIRCLE('',#437,1.7);
#188=CIRCLE('',#439,1.7);
#189=CIRCLE('',#441,1.7);
#190=CIRCLE('',#443,1.7);
#191=VERTEX_POINT('',#561);
#192=VERTEX_POINT('',#562);
#193=VERTEX_POINT('',#564);
#194=VERTEX_POINT('',#566);
#195=VERTEX_POINT('',#570);
#196=VERTEX_POINT('',#572);
#197=VERTEX_POINT('',#576);
#198=VERTEX_POINT('',#578);
#199=VERTEX_POINT('',#582);
#200=VERTEX_POINT('',#583);
#201=VERTEX_POINT('',#585);
#202=VERTEX_POINT('',#587);
#203=VERTEX_POINT('',#591);
#204=VERTEX_POINT('',#593);
#205=VERTEX_POINT('',#597);
#206=VERTEX_POINT('',#599);
#207=VERTEX_POINT('',#607);
#208=VERTEX_POINT('',#609);
#209=VERTEX_POINT('',#611);
#210=VERTEX_POINT('',#613);
#211=VERTEX_POINT('',#615);
#212=VERTEX_POINT('',#617);
#213=VERTEX_POINT('',#619);
#214=VERTEX_POINT('',#621);
#215=VERTEX_POINT('',#626);
#216=VERTEX_POINT('',#629);
#217=VERTEX_POINT('',#632);
#218=VERTEX_POINT('',#635);
#219=VERTEX_POINT('',#638);
#220=VERTEX_POINT('',#641);
#221=VERTEX_POINT('',#644);
#222=VERTEX_POINT('',#647);
#223=VERTEX_POINT('',#650);
#224=VERTEX_POINT('',#653);
#225=VERTEX_POINT('',#656);
#226=VERTEX_POINT('',#659);
#227=EDGE_CURVE('',#191,#192,#167,.T.);
#228=EDGE_CURVE('',#193,#191,#127,.T.);
#229=EDGE_CURVE('',#194,#193,#168,.T.);
#230=EDGE_CURVE('',#194,#192,#128,.T.);
#231=EDGE_CURVE('',#192,#195,#129,.T.);
#232=EDGE_CURVE('',#196,#194,#130,.T.);
#233=EDGE_CURVE('',#195,#196,#131,.T.);
#234=EDGE_CURVE('',#197,#191,#132,.T.);
#235=EDGE_CURVE('',#198,#197,#133,.T.);
#236=EDGE_CURVE('',#193,#198,#134,.T.);
#237=EDGE_CURVE('',#199,#200,#169,.T.);
#238=EDGE_CURVE('',#201,#199,#135,.T.);
#239=EDGE_CURVE('',#202,#201,#170,.T.);
#240=EDGE_CURVE('',#202,#200,#136,.T.);
#241=EDGE_CURVE('',#200,#203,#137,.T.);
#242=EDGE_CURVE('',#204,#202,#138,.T.);
#243=EDGE_CURVE('',#203,#204,#139,.T.);
#244=EDGE_CURVE('',#205,#199,#140,.T.);
#245=EDGE_CURVE('',#206,#205,#141,.T.);
#246=EDGE_CURVE('',#201,#206,#142,.T.);
#247=EDGE_CURVE('',#206,#196,#143,.T.);
#248=EDGE_CURVE('',#195,#205,#144,.T.);
#249=EDGE_CURVE('',#203,#197,#145,.T.);
#250=EDGE_CURVE('',#207,#207,#171,.T.);
#251=EDGE_CURVE('',#208,#208,#172,.T.);
#252=EDGE_CURVE('',#209,#209,#173,.T.);
#253=EDGE_CURVE('',#210,#210,#174,.T.);
#254=EDGE_CURVE('',#211,#211,#175,.T.);
#255=EDGE_CURVE('',#212,#212,#176,.T.);
#256=EDGE_CURVE('',#213,#213,#177,.T.);
#257=EDGE_CURVE('',#214,#214,#178,.T.);
#258=EDGE_CURVE('',#198,#204,#146,.T.);
#259=EDGE_CURVE('',#215,#215,#179,.T.);
#260=EDGE_CURVE('',#216,#216,#180,.T.);
#261=EDGE_CURVE('',#217,#217,#181,.T.);
#262=EDGE_CURVE('',#218,#218,#182,.T.);
#263=EDGE_CURVE('',#219,#219,#183,.T.);
#264=EDGE_CURVE('',#220,#220,#184,.T.);
#265=EDGE_CURVE('',#221,#221,#185,.T.);
#266=EDGE_CURVE('',#222,#222,#186,.T.);
#267=EDGE_CURVE('',#223,#223,#187,.T.);
#268=EDGE_CURVE('',#224,#224,#188,.T.);
#269=EDGE_CURVE('',#225,#225,#189,.T.);
#270=EDGE_CURVE('',#226,#226,#190,.T.);
#271=ORIENTED_EDGE('',*,*,#227,.F.);
#272=ORIENTED_EDGE('',*,*,#228,.F.);
#273=ORIENTED_EDGE('',*,*,#229,.F.);
#274=ORIENTED_EDGE('',*,*,#230,.T.);
#275=ORIENTED_EDGE('',*,*,#231,.F.);
#276=ORIENTED_EDGE('',*,*,#230,.F.);
#277=ORIENTED_EDGE('',*,*,#232,.F.);
#278=ORIENTED_EDGE('',*,*,#233,.F.);
#279=ORIENTED_EDGE('',*,*,#234,.F.);
#280=ORIENTED_EDGE('',*,*,#235,.F.);
#281=ORIENTED_EDGE('',*,*,#236,.F.);
#282=ORIENTED_EDGE('',*,*,#228,.T.);
#283=ORIENTED_EDGE('',*,*,#237,.F.);
#284=ORIENTED_EDGE('',*,*,#238,.F.);
#285=ORIENTED_EDGE('',*,*,#239,.F.);
#286=ORIENTED_EDGE('',*,*,#240,.T.);
#287=ORIENTED_EDGE('',*,*,#241,.F.);
#288=ORIENTED_EDGE('',*,*,#240,.F.);
#289=ORIENTED_EDGE('',*,*,#242,.F.);
#290=ORIENTED_EDGE('',*,*,#243,.F.);
#291=ORIENTED_EDGE('',*,*,#244,.F.);
#292=ORIENTED_EDGE('',*,*,#245,.F.);
#293=ORIENTED_EDGE('',*,*,#246,.F.);
#294=ORIENTED_EDGE('',*,*,#238,.T.);
#295=ORIENTED_EDGE('',*,*,#233,.T.);
#296=ORIENTED_EDGE('',*,*,#247,.F.);
#297=ORIENTED_EDGE('',*,*,#245,.T.);
#298=ORIENTED_EDGE('',*,*,#248,.F.);
#299=ORIENTED_EDGE('',*,*,#234,.T.);
#300=ORIENTED_EDGE('',*,*,#227,.T.);
#301=ORIENTED_EDGE('',*,*,#231,.T.);
#302=ORIENTED_EDGE('',*,*,#248,.T.);
#303=ORIENTED_EDGE('',*,*,#244,.T.);
#304=ORIENTED_EDGE('',*,*,#237,.T.);
#305=ORIENTED_EDGE('',*,*,#241,.T.);
#306=ORIENTED_EDGE('',*,*,#249,.T.);
#307=ORIENTED_EDGE('',*,*,#250,.T.);
#308=ORIENTED_EDGE('',*,*,#251,.T.);
#309=ORIENTED_EDGE('',*,*,#252,.T.);
#310=ORIENTED_EDGE('',*,*,#253,.T.);
#311=ORIENTED_EDGE('',*,*,#254,.T.);
#312=ORIENTED_EDGE('',*,*,#255,.T.);
#313=ORIENTED_EDGE('',*,*,#256,.T.);
#314=ORIENTED_EDGE('',*,*,#257,.T.);
#315=ORIENTED_EDGE('',*,*,#235,.T.);
#316=ORIENTED_EDGE('',*,*,#249,.F.);
#317=ORIENTED_EDGE('',*,*,#243,.T.);
#318=ORIENTED_EDGE('',*,*,#258,.F.);
#319=ORIENTED_EDGE('',*,*,#257,.F.);
#320=ORIENTED_EDGE('',*,*,#259,.F.);
#321=ORIENTED_EDGE('',*,*,#256,.F.);
#322=ORIENTED_EDGE('',*,*,#260,.F.);
#323=ORIENTED_EDGE('',*,*,#255,.F.);
#324=ORIENTED_EDGE('',*,*,#261,.F.);
#325=ORIENTED_EDGE('',*,*,#254,.F.);
#326=ORIENTED_EDGE('',*,*,#262,.F.);
#327=ORIENTED_EDGE('',*,*,#253,.F.);
#328=ORIENTED_EDGE('',*,*,#263,.F.);
#329=ORIENTED_EDGE('',*,*,#264,.F.);
#330=ORIENTED_EDGE('',*,*,#263,.T.);
#331=ORIENTED_EDGE('',*,*,#252,.F.);
#332=ORIENTED_EDGE('',*,*,#265,.F.);
#333=ORIENTED_EDGE('',*,*,#266,.F.);
#334=ORIENTED_EDGE('',*,*,#265,.T.);
#335=ORIENTED_EDGE('',*,*,#251,.F.);
#336=ORIENTED_EDGE('',*,*,#267,.F.);
#337=ORIENTED_EDGE('',*,*,#268,.F.);
#338=ORIENTED_EDGE('',*,*,#267,.T.);
#339=ORIENTED_EDGE('',*,*,#250,.F.);
#340=ORIENTED_EDGE('',*,*,#269,.F.);
#341=ORIENTED_EDGE('',*,*,#270,.F.);
#342=ORIENTED_EDGE('',*,*,#269,.T.);
#343=ORIENTED_EDGE('',*,*,#236,.T.);
#344=ORIENTED_EDGE('',*,*,#258,.T.);
#345=ORIENTED_EDGE('',*,*,#242,.T.);
#346=ORIENTED_EDGE('',*,*,#239,.T.);
#347=ORIENTED_EDGE('',*,*,#246,.T.);
#348=ORIENTED_EDGE('',*,*,#247,.T.);
#349=ORIENTED_EDGE('',*,*,#232,.T.);
#350=ORIENTED_EDGE('',*,*,#229,.T.);
#351=ORIENTED_EDGE('',*,*,#259,.T.);
#352=ORIENTED_EDGE('',*,*,#260,.T.);
#353=ORIENTED_EDGE('',*,*,#261,.T.);
#354=ORIENTED_EDGE('',*,*,#262,.T.);
#355=ORIENTED_EDGE('',*,*,#264,.T.);
#356=ORIENTED_EDGE('',*,*,#266,.T.);
#357=ORIENTED_EDGE('',*,*,#268,.T.);
#358=ORIENTED_EDGE('',*,*,#270,.T.);
#359=CYLINDRICAL_SURFACE('',#399,46.);
#360=CYLINDRICAL_SURFACE('',#404,46.);
#361=CYLINDRICAL_SURFACE('',#420,1.2295);
#362=CYLINDRICAL_SURFACE('',#422,1.2295);
#363=CYLINDRICAL_SURFACE('',#424,1.2295);
#364=CYLINDRICAL_SURFACE('',#426,1.2295);
#365=CYLINDRICAL_SURFACE('',#430,1.7);
#366=CYLINDRICAL_SURFACE('',#434,1.7);
#367=CYLINDRICAL_SURFACE('',#438,1.7);
#368=CYLINDRICAL_SURFACE('',#442,1.7);
#369=ADVANCED_FACE('',(#55),#359,.T.);
#370=ADVANCED_FACE('',(#56),#47,.F.);
#371=ADVANCED_FACE('',(#57),#48,.F.);
#372=ADVANCED_FACE('',(#58),#360,.T.);
#373=ADVANCED_FACE('',(#59),#49,.F.);
#374=ADVANCED_FACE('',(#60),#50,.F.);
#375=ADVANCED_FACE('',(#61),#51,.T.);
#376=ADVANCED_FACE('',(#62,#19,#20,#21,#22,#23,#24,#25,#26),#52,.F.);
#377=ADVANCED_FACE('',(#63),#53,.T.);
#378=ADVANCED_FACE('',(#64,#27),#361,.F.);
#379=ADVANCED_FACE('',(#65,#28),#362,.F.);
#380=ADVANCED_FACE('',(#66,#29),#363,.F.);
#381=ADVANCED_FACE('',(#67,#30),#364,.F.);
#382=ADVANCED_FACE('',(#68,#31),#15,.F.);
#383=ADVANCED_FACE('',(#69,#32),#365,.F.);
#384=ADVANCED_FACE('',(#70,#33),#16,.F.);
#385=ADVANCED_FACE('',(#71,#34),#366,.F.);
#386=ADVANCED_FACE('',(#72,#35),#17,.F.);
#387=ADVANCED_FACE('',(#73,#36),#367,.F.);
#388=ADVANCED_FACE('',(#74,#37),#18,.F.);
#389=ADVANCED_FACE('',(#75,#38),#368,.F.);
#390=ADVANCED_FACE('',(#76,#39,#40,#41,#42,#43,#44,#45,#46),#54,.T.);
#391=CLOSED_SHELL('',(#369,#370,#371,#372,#373,#374,#375,#376,#377,#378,
#379,#380,#381,#382,#383,#384,#385,#386,#387,#388,#389,#390));
#392=DATE_TIME_ROLE('creation_date');
#393=APPLIED_DATE_AND_TIME_ASSIGNMENT(#394,#392,(#676));
#394=DATE_AND_TIME(#395,#396);
#395=CALENDAR_DATE(2021,15,4);
#396=LOCAL_TIME(16,14,13.,#397);
#397=COORDINATED_UNIVERSAL_TIME_OFFSET(0,0,.BEHIND.);
#398=AXIS2_PLACEMENT_3D('placement',#559,#445,#446);
#399=AXIS2_PLACEMENT_3D('',#560,#447,#448);
#400=AXIS2_PLACEMENT_3D('',#563,#449,#450);
#401=AXIS2_PLACEMENT_3D('',#567,#452,#453);
#402=AXIS2_PLACEMENT_3D('',#569,#455,#456);
#403=AXIS2_PLACEMENT_3D('',#575,#460,#461);
#404=AXIS2_PLACEMENT_3D('',#581,#465,#466);
#405=AXIS2_PLACEMENT_3D('',#584,#467,#468);
#406=AXIS2_PLACEMENT_3D('',#588,#470,#471);
#407=AXIS2_PLACEMENT_3D('',#590,#473,#474);
#408=AXIS2_PLACEMENT_3D('',#596,#478,#479);
#409=AXIS2_PLACEMENT_3D('',#602,#483,#484);
#410=AXIS2_PLACEMENT_3D('',#605,#487,#488);
#411=AXIS2_PLACEMENT_3D('',#608,#490,#491);
#412=AXIS2_PLACEMENT_3D('',#610,#492,#493);
#413=AXIS2_PLACEMENT_3D('',#612,#494,#495);
#414=AXIS2_PLACEMENT_3D('',#614,#496,#497);
#415=AXIS2_PLACEMENT_3D('',#616,#498,#499);
#416=AXIS2_PLACEMENT_3D('',#618,#500,#501);
#417=AXIS2_PLACEMENT_3D('',#620,#502,#503);
#418=AXIS2_PLACEMENT_3D('',#622,#504,#505);
#419=AXIS2_PLACEMENT_3D('',#623,#506,#507);
#420=AXIS2_PLACEMENT_3D('',#625,#509,#510);
#421=AXIS2_PLACEMENT_3D('',#627,#511,#512);
#422=AXIS2_PLACEMENT_3D('',#628,#513,#514);
#423=AXIS2_PLACEMENT_3D('',#630,#515,#516);
#424=AXIS2_PLACEMENT_3D('',#631,#517,#518);
#425=AXIS2_PLACEMENT_3D('',#633,#519,#520);
#426=AXIS2_PLACEMENT_3D('',#634,#521,#522);
#427=AXIS2_PLACEMENT_3D('',#636,#523,#524);
#428=AXIS2_PLACEMENT_3D('',#637,#525,#526);
#429=AXIS2_PLACEMENT_3D('',#639,#527,#528);
#430=AXIS2_PLACEMENT_3D('',#640,#529,#530);
#431=AXIS2_PLACEMENT_3D('',#642,#531,#532);
#432=AXIS2_PLACEMENT_3D('',#643,#533,#534);
#433=AXIS2_PLACEMENT_3D('',#645,#535,#536);
#434=AXIS2_PLACEMENT_3D('',#646,#537,#538);
#435=AXIS2_PLACEMENT_3D('',#648,#539,#540);
#436=AXIS2_PLACEMENT_3D('',#649,#541,#542);
#437=AXIS2_PLACEMENT_3D('',#651,#543,#544);
#438=AXIS2_PLACEMENT_3D('',#652,#545,#546);
#439=AXIS2_PLACEMENT_3D('',#654,#547,#548);
#440=AXIS2_PLACEMENT_3D('',#655,#549,#550);
#441=AXIS2_PLACEMENT_3D('',#657,#551,#552);
#442=AXIS2_PLACEMENT_3D('',#658,#553,#554);
#443=AXIS2_PLACEMENT_3D('',#660,#555,#556);
#444=AXIS2_PLACEMENT_3D('',#661,#557,#558);
#445=DIRECTION('axis',(0.,0.,1.));
#446=DIRECTION('refdir',(1.,0.,0.));
#447=DIRECTION('center_axis',(0.,-1.,0.));
#448=DIRECTION('ref_axis',(0.718378767037318,0.,0.695652173913044));
#449=DIRECTION('center_axis',(0.,-1.,0.));
#450=DIRECTION('ref_axis',(0.718378767037318,0.,0.695652173913044));
#451=DIRECTION('',(0.,-1.,0.));
#452=DIRECTION('center_axis',(0.,1.,0.));
#453=DIRECTION('ref_axis',(0.718378767037318,0.,0.695652173913044));
#454=DIRECTION('',(0.,-1.,0.));
#455=DIRECTION('center_axis',(1.,0.,2.46716227694487E-16));
#456=DIRECTION('ref_axis',(-3.5527136788005E-16,0.,1.));
#457=DIRECTION('',(2.46716227694487E-16,0.,-1.));
#458=DIRECTION('',(-2.46716227694487E-16,0.,1.));
#459=DIRECTION('',(0.,1.,0.));
#460=DIRECTION('center_axis',(1.,0.,2.46716227694479E-16));
#461=DIRECTION('ref_axis',(-3.5527136788005E-16,0.,1.));
#462=DIRECTION('',(2.46716227694479E-16,0.,-1.));
#463=DIRECTION('',(0.,-1.,0.));
#464=DIRECTION('',(-2.46716227694479E-16,0.,1.));
#465=DIRECTION('center_axis',(0.,-1.,0.));
#466=DIRECTION('ref_axis',(-0.718378767037317,0.,-0.695652173913044));
#467=DIRECTION('center_axis',(0.,-1.,0.));
#468=DIRECTION('ref_axis',(-0.718378767037317,0.,-0.695652173913044));
#469=DIRECTION('',(0.,-1.,0.));
#470=DIRECTION('center_axis',(0.,1.,0.));
#471=DIRECTION('ref_axis',(-0.718378767037317,0.,-0.695652173913044));
#472=DIRECTION('',(0.,-1.,0.));
#473=DIRECTION('center_axis',(-1.,0.,2.46716227694479E-16));
#474=DIRECTION('ref_axis',(-3.5527136788005E-16,0.,-1.));
#475=DIRECTION('',(2.46716227694479E-16,0.,1.));
#476=DIRECTION('',(-2.46716227694479E-16,0.,-1.));
#477=DIRECTION('',(0.,1.,0.));
#478=DIRECTION('center_axis',(-1.,0.,2.46716227694487E-16));
#479=DIRECTION('ref_axis',(-3.5527136788005E-16,0.,-1.));
#480=DIRECTION('',(2.46716227694487E-16,0.,1.));
#481=DIRECTION('',(0.,-1.,0.));
#482=DIRECTION('',(-2.46716227694487E-16,0.,-1.));
#483=DIRECTION('center_axis',(-3.33066907387547E-16,0.,-1.));
#484=DIRECTION('ref_axis',(-1.,0.,0.));
#485=DIRECTION('',(-1.,0.,3.33066907387547E-16));
#486=DIRECTION('',(1.,0.,-3.33066907387547E-16));
#487=DIRECTION('center_axis',(0.,1.,0.));
#488=DIRECTION('ref_axis',(0.,0.,1.));
#489=DIRECTION('',(-1.,0.,3.33066907387547E-16));
#490=DIRECTION('center_axis',(0.,1.,0.));
#491=DIRECTION('ref_axis',(1.,0.,0.));
#492=DIRECTION('center_axis',(0.,1.,0.));
#493=DIRECTION('ref_axis',(1.,0.,0.));
#494=DIRECTION('center_axis',(0.,1.,0.));
#495=DIRECTION('ref_axis',(1.,0.,0.));
#496=DIRECTION('center_axis',(0.,1.,0.));
#497=DIRECTION('ref_axis',(1.,0.,0.));
#498=DIRECTION('center_axis',(0.,1.,0.));
#499=DIRECTION('ref_axis',(1.,0.,0.));
#500=DIRECTION('center_axis',(0.,1.,0.));
#501=DIRECTION('ref_axis',(1.,0.,0.));
#502=DIRECTION('center_axis',(0.,1.,0.));
#503=DIRECTION('ref_axis',(1.,0.,0.));
#504=DIRECTION('center_axis',(0.,1.,0.));
#505=DIRECTION('ref_axis',(1.,0.,0.));
#506=DIRECTION('center_axis',(3.33066907387547E-16,0.,1.));
#507=DIRECTION('ref_axis',(1.,0.,0.));
#508=DIRECTION('',(1.,0.,-3.33066907387547E-16));
#509=DIRECTION('center_axis',(0.,1.,0.));
#510=DIRECTION('ref_axis',(1.,0.,0.));
#511=DIRECTION('center_axis',(0.,-1.,0.));
#512=DIRECTION('ref_axis',(1.,0.,0.));
#513=DIRECTION('center_axis',(0.,1.,0.));
#514=DIRECTION('ref_axis',(1.,0.,0.));
#515=DIRECTION('center_axis',(0.,-1.,0.));
#516=DIRECTION('ref_axis',(1.,0.,0.));
#517=DIRECTION('center_axis',(0.,1.,0.));
#518=DIRECTION('ref_axis',(1.,0.,0.));
#519=DIRECTION('center_axis',(0.,-1.,0.));
#520=DIRECTION('ref_axis',(1.,0.,0.));
#521=DIRECTION('center_axis',(0.,1.,0.));
#522=DIRECTION('ref_axis',(1.,0.,0.));
#523=DIRECTION('center_axis',(0.,-1.,0.));
#524=DIRECTION('ref_axis',(1.,0.,0.));
#525=DIRECTION('center_axis',(0.,-1.,0.));
#526=DIRECTION('ref_axis',(1.,0.,0.));
#527=DIRECTION('center_axis',(0.,-1.,0.));
#528=DIRECTION('ref_axis',(1.,0.,0.));
#529=DIRECTION('center_axis',(0.,-1.,0.));
#530=DIRECTION('ref_axis',(1.,0.,0.));
#531=DIRECTION('center_axis',(0.,-1.,0.));
#532=DIRECTION('ref_axis',(1.,0.,0.));
#533=DIRECTION('center_axis',(0.,-1.,0.));
#534=DIRECTION('ref_axis',(1.,0.,0.));
#535=DIRECTION('center_axis',(0.,-1.,0.));
#536=DIRECTION('ref_axis',(1.,0.,0.));
#537=DIRECTION('center_axis',(0.,-1.,0.));
#538=DIRECTION('ref_axis',(1.,0.,0.));
#539=DIRECTION('center_axis',(0.,-1.,0.));
#540=DIRECTION('ref_axis',(1.,0.,0.));
#541=DIRECTION('center_axis',(0.,-1.,0.));
#542=DIRECTION('ref_axis',(1.,0.,0.));
#543=DIRECTION('center_axis',(0.,-1.,0.));
#544=DIRECTION('ref_axis',(1.,0.,0.));
#545=DIRECTION('center_axis',(0.,-1.,0.));
#546=DIRECTION('ref_axis',(1.,0.,0.));
#547=DIRECTION('center_axis',(0.,-1.,0.));
#548=DIRECTION('ref_axis',(1.,0.,0.));
#549=DIRECTION('center_axis',(0.,-1.,0.));
#550=DIRECTION('ref_axis',(1.,0.,0.));
#551=DIRECTION('center_axis',(0.,-1.,0.));
#552=DIRECTION('ref_axis',(1.,0.,0.));
#553=DIRECTION('center_axis',(0.,-1.,0.));
#554=DIRECTION('ref_axis',(1.,0.,0.));
#555=DIRECTION('center_axis',(0.,-1.,0.));
#556=DIRECTION('ref_axis',(1.,0.,0.));
#557=DIRECTION('center_axis',(0.,1.,0.));
#558=DIRECTION('ref_axis',(0.,0.,1.));
#559=CARTESIAN_POINT('',(0.,0.,0.));
#560=CARTESIAN_POINT('Origin',(6.0454232837166,2.,0.));
#561=CARTESIAN_POINT('',(-27.,0.,32.));
#562=CARTESIAN_POINT('',(-27.,0.,-32.));
#563=CARTESIAN_POINT('Origin',(6.0454232837166,0.,0.));
#564=CARTESIAN_POINT('',(-27.,2.,32.));
#565=CARTESIAN_POINT('',(-27.,2.,32.));
#566=CARTESIAN_POINT('',(-27.,2.,-32.));
#567=CARTESIAN_POINT('Origin',(6.0454232837166,2.,0.));
#568=CARTESIAN_POINT('',(-27.,2.,-32.));
#569=CARTESIAN_POINT('Origin',(-27.,2.,-49.9999999999994));
#570=CARTESIAN_POINT('',(-27.,0.,-49.9999999999994));
#571=CARTESIAN_POINT('',(-27.,0.,-24.9999999999996));
#572=CARTESIAN_POINT('',(-27.,2.,-49.9999999999994));
#573=CARTESIAN_POINT('',(-27.,2.,-24.9999999999996));
#574=CARTESIAN_POINT('',(-27.,1.,-49.9999999999994));
#575=CARTESIAN_POINT('Origin',(-27.,2.,32.));
#576=CARTESIAN_POINT('',(-27.,0.,50.));
#577=CARTESIAN_POINT('',(-27.,0.,16.0000000000002));
#578=CARTESIAN_POINT('',(-27.,2.,50.));
#579=CARTESIAN_POINT('',(-27.,1.,50.));
#580=CARTESIAN_POINT('',(-27.,2.,16.0000000000002));
#581=CARTESIAN_POINT('Origin',(-6.0454232837166,2.,0.));
#582=CARTESIAN_POINT('',(27.,0.,-32.));
#583=CARTESIAN_POINT('',(27.,0.,32.));
#584=CARTESIAN_POINT('Origin',(-6.0454232837166,0.,0.));
#585=CARTESIAN_POINT('',(27.,2.,-32.));
#586=CARTESIAN_POINT('',(27.,2.,-32.));
#587=CARTESIAN_POINT('',(27.,2.,32.));
#588=CARTESIAN_POINT('Origin',(-6.0454232837166,2.,0.));
#589=CARTESIAN_POINT('',(27.,2.,32.));
#590=CARTESIAN_POINT('Origin',(27.,2.,50.));
#591=CARTESIAN_POINT('',(27.,0.,50.));
#592=CARTESIAN_POINT('',(27.,0.,25.0000000000001));
#593=CARTESIAN_POINT('',(27.,2.,50.));
#594=CARTESIAN_POINT('',(27.,2.,25.0000000000001));
#595=CARTESIAN_POINT('',(27.,1.,50.));
#596=CARTESIAN_POINT('Origin',(27.,2.,-32.));
#597=CARTESIAN_POINT('',(27.,0.,-49.9999999999994));
#598=CARTESIAN_POINT('',(27.,0.,-15.9999999999999));
#599=CARTESIAN_POINT('',(27.,2.,-49.9999999999994));
#600=CARTESIAN_POINT('',(27.,1.,-49.9999999999994));
#601=CARTESIAN_POINT('',(27.,2.,-15.9999999999999));
#602=CARTESIAN_POINT('Origin',(40.,0.,-49.9999999999994));
#603=CARTESIAN_POINT('',(-40.,2.,-49.9999999999994));
#604=CARTESIAN_POINT('',(-40.,0.,-49.9999999999994));
#605=CARTESIAN_POINT('Origin',(3.45402718772272E-15,0.,2.94579175867209E-13));
#606=CARTESIAN_POINT('',(40.,0.,50.));
#607=CARTESIAN_POINT('',(-11.5,0.,-14.9999999999997));
#608=CARTESIAN_POINT('Origin',(-15.,0.,-14.9999999999997));
#609=CARTESIAN_POINT('',(18.5,0.,-14.9999999999997));
#610=CARTESIAN_POINT('Origin',(15.,0.,-14.9999999999997));
#611=CARTESIAN_POINT('',(18.5,0.,15.0000000000003));
#612=CARTESIAN_POINT('Origin',(15.,0.,15.0000000000003));
#613=CARTESIAN_POINT('',(-11.5,0.,15.0000000000003));
#614=CARTESIAN_POINT('Origin',(-15.,0.,15.0000000000003));
#615=CARTESIAN_POINT('',(18.7705,0.,-40.));
#616=CARTESIAN_POINT('Origin',(20.,0.,-40.));
#617=CARTESIAN_POINT('',(-21.2295,0.,-40.));
#618=CARTESIAN_POINT('Origin',(-20.,0.,-40.));
#619=CARTESIAN_POINT('',(-21.2295,0.,40.));
#620=CARTESIAN_POINT('Origin',(-20.,0.,40.));
#621=CARTESIAN_POINT('',(18.7705,0.,40.));
#622=CARTESIAN_POINT('Origin',(20.,0.,40.));
#623=CARTESIAN_POINT('Origin',(-40.,0.,50.));
#624=CARTESIAN_POINT('',(40.,2.,50.));
#625=CARTESIAN_POINT('Origin',(20.,-2.4,40.));
#626=CARTESIAN_POINT('',(21.2295,2.,40.));
#627=CARTESIAN_POINT('Origin',(20.,2.,40.));
#628=CARTESIAN_POINT('Origin',(-20.,-2.4,40.));
#629=CARTESIAN_POINT('',(-18.7705,2.,40.));
#630=CARTESIAN_POINT('Origin',(-20.,2.,40.));
#631=CARTESIAN_POINT('Origin',(-20.,-2.4,-40.));
#632=CARTESIAN_POINT('',(-18.7705,2.,-40.));
#633=CARTESIAN_POINT('Origin',(-20.,2.,-40.));
#634=CARTESIAN_POINT('Origin',(20.,-2.4,-40.));
#635=CARTESIAN_POINT('',(21.2295,2.,-40.));
#636=CARTESIAN_POINT('Origin',(20.,2.,-40.));
#637=CARTESIAN_POINT('Origin',(-15.,0.9,15.0000000000003));
#638=CARTESIAN_POINT('',(-13.3,1.8,15.0000000000003));
#639=CARTESIAN_POINT('Origin',(-15.,1.8,15.0000000000003));
#640=CARTESIAN_POINT('Origin',(-15.,128.078101172682,15.0000000000003));
#641=CARTESIAN_POINT('',(-16.7,1.99999999999999,15.0000000000003));
#642=CARTESIAN_POINT('Origin',(-15.,1.99999999999999,15.0000000000003));
#643=CARTESIAN_POINT('Origin',(15.,0.9,15.0000000000003));
#644=CARTESIAN_POINT('',(16.7,1.8,15.0000000000003));
#645=CARTESIAN_POINT('Origin',(15.,1.8,15.0000000000003));
#646=CARTESIAN_POINT('Origin',(15.,128.078101172682,15.0000000000003));
#647=CARTESIAN_POINT('',(13.3,1.99999999999999,15.0000000000003));
#648=CARTESIAN_POINT('Origin',(15.,1.99999999999999,15.0000000000003));
#649=CARTESIAN_POINT('Origin',(15.,0.9,-14.9999999999997));
#650=CARTESIAN_POINT('',(16.7,1.8,-14.9999999999997));
#651=CARTESIAN_POINT('Origin',(15.,1.8,-14.9999999999997));
#652=CARTESIAN_POINT('Origin',(15.,128.078101172682,-14.9999999999997));
#653=CARTESIAN_POINT('',(13.3,1.99999999999999,-14.9999999999997));
#654=CARTESIAN_POINT('Origin',(15.,1.99999999999999,-14.9999999999997));
#655=CARTESIAN_POINT('Origin',(-15.,0.9,-14.9999999999997));
#656=CARTESIAN_POINT('',(-13.3,1.8,-14.9999999999997));
#657=CARTESIAN_POINT('Origin',(-15.,1.8,-14.9999999999997));
#658=CARTESIAN_POINT('Origin',(-15.,128.078101172682,-14.9999999999997));
#659=CARTESIAN_POINT('',(-16.7,1.99999999999999,-14.9999999999997));
#660=CARTESIAN_POINT('Origin',(-15.,1.99999999999999,-14.9999999999997));
#661=CARTESIAN_POINT('Origin',(0.,2.,2.93098878501041E-13));
#662=UNCERTAINTY_MEASURE_WITH_UNIT(LENGTH_MEASURE(0.01),#666,
'DISTANCE_ACCURACY_VALUE',
'Maximum model space distance between geometric entities at asserted c
onnectivities');
#663=UNCERTAINTY_MEASURE_WITH_UNIT(LENGTH_MEASURE(1.E-6),#666,
'DISTANCE_ACCURACY_VALUE',
'Maximum model space distance between geometric entities at asserted c
onnectivities');
#664=(
GEOMETRIC_REPRESENTATION_CONTEXT(3)
GLOBAL_UNCERTAINTY_ASSIGNED_CONTEXT((#662))
GLOBAL_UNIT_ASSIGNED_CONTEXT((#666,#669,#667))
REPRESENTATION_CONTEXT('','3D')
);
#665=(
GEOMETRIC_REPRESENTATION_CONTEXT(3)
GLOBAL_UNCERTAINTY_ASSIGNED_CONTEXT((#663))
GLOBAL_UNIT_ASSIGNED_CONTEXT((#666,#669,#667))
REPRESENTATION_CONTEXT('','3D')
);
#666=(
LENGTH_UNIT()
NAMED_UNIT(*)
SI_UNIT(.MILLI.,.METRE.)
);
#667=(
NAMED_UNIT(*)
SI_UNIT($,.STERADIAN.)
SOLID_ANGLE_UNIT()
);
#668=DIMENSIONAL_EXPONENTS(0.,0.,0.,0.,0.,0.,0.);
#669=(
CONVERSION_BASED_UNIT('degree',#671)
NAMED_UNIT(#668)
PLANE_ANGLE_UNIT()
);
#670=(
NAMED_UNIT(*)
PLANE_ANGLE_UNIT()
SI_UNIT($,.RADIAN.)
);
#671=PLANE_ANGLE_MEASURE_WITH_UNIT(PLANE_ANGLE_MEASURE(0.01745329252),#670);
#672=SHAPE_DEFINITION_REPRESENTATION(#673,#674);
#673=PRODUCT_DEFINITION_SHAPE('',$,#676);
#674=SHAPE_REPRESENTATION('',(#398),#664);
#675=PRODUCT_DEFINITION_CONTEXT('part definition',#680,'design');
#676=PRODUCT_DEFINITION('CoolingPlate-40mmPeltier',
'CoolingPlate-40mmPeltier',#677,#675);
#677=PRODUCT_DEFINITION_FORMATION('',$,#682);
#678=PRODUCT_RELATED_PRODUCT_CATEGORY('CoolingPlate-40mmPeltier',
'CoolingPlate-40mmPeltier',(#682));
#679=APPLICATION_PROTOCOL_DEFINITION('international standard',
'automotive_design',2009,#680);
#680=APPLICATION_CONTEXT(
'Core Data for Automotive Mechanical Design Process');
#681=PRODUCT_CONTEXT('part definition',#680,'mechanical');
#682=PRODUCT('CoolingPlate-40mmPeltier','CoolingPlate-40mmPeltier',$,(#681));
#683=PRESENTATION_STYLE_ASSIGNMENT((#684));
#684=SURFACE_STYLE_USAGE(.BOTH.,#685);
#685=SURFACE_SIDE_STYLE('',(#686));
#686=SURFACE_STYLE_FILL_AREA(#687);
#687=FILL_AREA_STYLE('',(#688));
#688=FILL_AREA_STYLE_COLOUR('',#689);
#689=COLOUR_RGB('',0.749019607843137,0.749019607843137,0.749019607843137);
ENDSEC;
END-ISO-10303-21;
