ISO-10303-21;
HEADER;
/* Generated by software containing ST-Developer
 * from STEP Tools, Inc. (www.steptools.com) 
 */

FILE_DESCRIPTION(
/* description */ (''),
/* implementation_level */ '2;1');

FILE_NAME(
/* name */ 
'C:\\Users\\Charl\X\E8ne Brillard\\Desktop\\GHOSTINTHESHELL\\LM\\OpenS
PIM\\CAD\\Website\\SyringeHolder.stp',
/* time_stamp */ '2021-07-05T15:22:45+02:00',
/* author */ ('Charlene Brillard'),
/* organization */ (''),
/* preprocessor_version */ 'ST-DEVELOPER v16.5',
/* originating_system */ 'Autodesk Inventor 2017',
/* authorisation */ '');

FILE_SCHEMA (('AUTOMOTIVE_DESIGN { 1 0 10303 214 3 1 1 }'));
ENDSEC;

DATA;
#10=MECHANICAL_DESIGN_GEOMETRIC_PRESENTATION_REPRESENTATION('',(#13),#211);
#11=SHAPE_REPRESENTATION_RELATIONSHIP('SRR','None',#220,#12);
#12=ADVANCED_BREP_SHAPE_REPRESENTATION('',(#14),#210);
#13=STYLED_ITEM('',(#229),#14);
#14=MANIFOLD_SOLID_BREP('Solid1',#103);
#15=LINE('',#197,#19);
#16=LINE('',#199,#20);
#17=LINE('',#201,#21);
#18=LINE('',#202,#22);
#19=VECTOR('',#136,10.);
#20=VECTOR('',#137,10.);
#21=VECTOR('',#138,10.);
#22=VECTOR('',#139,10.);
#23=PLANE('',#116);
#24=PLANE('',#120);
#25=PLANE('',#121);
#26=FACE_BOUND('',#44,.T.);
#27=FACE_BOUND('',#46,.T.);
#28=FACE_BOUND('',#47,.T.);
#29=FACE_BOUND('',#49,.T.);
#30=FACE_BOUND('',#52,.T.);
#31=FACE_BOUND('',#54,.T.);
#32=CIRCLE('',#112,1.621);
#33=CIRCLE('',#114,3.5);
#34=CIRCLE('',#115,3.5);
#35=CIRCLE('',#118,6.5);
#36=CIRCLE('',#119,6.5);
#37=FACE_OUTER_BOUND('',#43,.T.);
#38=FACE_OUTER_BOUND('',#45,.T.);
#39=FACE_OUTER_BOUND('',#48,.T.);
#40=FACE_OUTER_BOUND('',#50,.T.);
#41=FACE_OUTER_BOUND('',#51,.T.);
#42=FACE_OUTER_BOUND('',#53,.T.);
#43=EDGE_LOOP('',(#74));
#44=EDGE_LOOP('',(#75));
#45=EDGE_LOOP('',(#76));
#46=EDGE_LOOP('',(#77));
#47=EDGE_LOOP('',(#78));
#48=EDGE_LOOP('',(#79,#80,#81,#82));
#49=EDGE_LOOP('',(#83));
#50=EDGE_LOOP('',(#84,#85,#86,#87));
#51=EDGE_LOOP('',(#88,#89));
#52=EDGE_LOOP('',(#90));
#53=EDGE_LOOP('',(#91,#92));
#54=EDGE_LOOP('',(#93));
#55=B_SPLINE_CURVE_WITH_KNOTS('',3,(#153,#154,#155,#156,#157,#158,#159,
#160,#161,#162,#163,#164,#165,#166,#167,#168,#169,#170,#171,#172,#173,#174,
#175,#176,#177,#178,#179,#180,#181,#182,#183,#184,#185,#186),
 .UNSPECIFIED.,.T.,.F.,(4,2,2,2,2,2,2,2,2,2,2,2,2,2,2,2,4),(0.,0.0621697065664114,
0.124339413132823,0.186389230344466,0.248439047556109,0.310488864767752,
0.372538681979395,0.434708388545807,0.496878095112218,0.559047801678629,
0.621217508245041,0.683267325456684,0.745317142668327,0.80736695987997,
0.869416777091613,0.931586483658025,0.993756190224436),.UNSPECIFIED.);
#56=VERTEX_POINT('',#152);
#57=VERTEX_POINT('',#187);
#58=VERTEX_POINT('',#190);
#59=VERTEX_POINT('',#192);
#60=VERTEX_POINT('',#195);
#61=VERTEX_POINT('',#196);
#62=VERTEX_POINT('',#198);
#63=VERTEX_POINT('',#200);
#64=EDGE_CURVE('',#56,#56,#55,.T.);
#65=EDGE_CURVE('',#57,#57,#32,.T.);
#66=EDGE_CURVE('',#58,#58,#33,.T.);
#67=EDGE_CURVE('',#59,#59,#34,.T.);
#68=EDGE_CURVE('',#60,#61,#15,.T.);
#69=EDGE_CURVE('',#61,#62,#16,.T.);
#70=EDGE_CURVE('',#63,#62,#17,.T.);
#71=EDGE_CURVE('',#60,#63,#18,.T.);
#72=EDGE_CURVE('',#61,#60,#35,.T.);
#73=EDGE_CURVE('',#62,#63,#36,.T.);
#74=ORIENTED_EDGE('',*,*,#64,.F.);
#75=ORIENTED_EDGE('',*,*,#65,.F.);
#76=ORIENTED_EDGE('',*,*,#66,.F.);
#77=ORIENTED_EDGE('',*,*,#64,.T.);
#78=ORIENTED_EDGE('',*,*,#67,.F.);
#79=ORIENTED_EDGE('',*,*,#68,.T.);
#80=ORIENTED_EDGE('',*,*,#69,.T.);
#81=ORIENTED_EDGE('',*,*,#70,.F.);
#82=ORIENTED_EDGE('',*,*,#71,.F.);
#83=ORIENTED_EDGE('',*,*,#65,.T.);
#84=ORIENTED_EDGE('',*,*,#72,.T.);
#85=ORIENTED_EDGE('',*,*,#71,.T.);
#86=ORIENTED_EDGE('',*,*,#73,.F.);
#87=ORIENTED_EDGE('',*,*,#69,.F.);
#88=ORIENTED_EDGE('',*,*,#73,.T.);
#89=ORIENTED_EDGE('',*,*,#70,.T.);
#90=ORIENTED_EDGE('',*,*,#66,.T.);
#91=ORIENTED_EDGE('',*,*,#72,.F.);
#92=ORIENTED_EDGE('',*,*,#68,.F.);
#93=ORIENTED_EDGE('',*,*,#67,.T.);
#94=CYLINDRICAL_SURFACE('',#111,1.621);
#95=CYLINDRICAL_SURFACE('',#113,3.5);
#96=CYLINDRICAL_SURFACE('',#117,6.5);
#97=ADVANCED_FACE('',(#37,#26),#94,.F.);
#98=ADVANCED_FACE('',(#38,#27,#28),#95,.F.);
#99=ADVANCED_FACE('',(#39,#29),#23,.T.);
#100=ADVANCED_FACE('',(#40),#96,.T.);
#101=ADVANCED_FACE('',(#41,#30),#24,.T.);
#102=ADVANCED_FACE('',(#42,#31),#25,.F.);
#103=CLOSED_SHELL('',(#97,#98,#99,#100,#101,#102));
#104=DATE_TIME_ROLE('creation_date');
#105=APPLIED_DATE_AND_TIME_ASSIGNMENT(#106,#104,(#222));
#106=DATE_AND_TIME(#107,#108);
#107=CALENDAR_DATE(2021,26,4);
#108=LOCAL_TIME(14,13,0.,#109);
#109=COORDINATED_UNIVERSAL_TIME_OFFSET(0,0,.BEHIND.);
#110=AXIS2_PLACEMENT_3D('placement',#150,#122,#123);
#111=AXIS2_PLACEMENT_3D('',#151,#124,#125);
#112=AXIS2_PLACEMENT_3D('',#188,#126,#127);
#113=AXIS2_PLACEMENT_3D('',#189,#128,#129);
#114=AXIS2_PLACEMENT_3D('',#191,#130,#131);
#115=AXIS2_PLACEMENT_3D('',#193,#132,#133);
#116=AXIS2_PLACEMENT_3D('',#194,#134,#135);
#117=AXIS2_PLACEMENT_3D('',#203,#140,#141);
#118=AXIS2_PLACEMENT_3D('',#204,#142,#143);
#119=AXIS2_PLACEMENT_3D('',#205,#144,#145);
#120=AXIS2_PLACEMENT_3D('',#206,#146,#147);
#121=AXIS2_PLACEMENT_3D('',#207,#148,#149);
#122=DIRECTION('axis',(0.,0.,1.));
#123=DIRECTION('refdir',(1.,0.,0.));
#124=DIRECTION('center_axis',(0.,0.,-1.));
#125=DIRECTION('ref_axis',(-1.,0.,0.));
#126=DIRECTION('center_axis',(0.,0.,1.));
#127=DIRECTION('ref_axis',(-1.,0.,0.));
#128=DIRECTION('center_axis',(0.,1.,0.));
#129=DIRECTION('ref_axis',(1.,0.,0.));
#130=DIRECTION('center_axis',(0.,-1.,0.));
#131=DIRECTION('ref_axis',(1.,0.,0.));
#132=DIRECTION('center_axis',(0.,1.,0.));
#133=DIRECTION('ref_axis',(1.,0.,0.));
#134=DIRECTION('center_axis',(0.,0.,-1.));
#135=DIRECTION('ref_axis',(-1.,0.,0.));
#136=DIRECTION('',(-1.,0.,0.));
#137=DIRECTION('',(0.,1.,0.));
#138=DIRECTION('',(-1.,0.,0.));
#139=DIRECTION('',(0.,1.,0.));
#140=DIRECTION('center_axis',(0.,1.,0.));
#141=DIRECTION('ref_axis',(-0.384615384615385,0.,-0.923076923076923));
#142=DIRECTION('center_axis',(0.,1.,0.));
#143=DIRECTION('ref_axis',(-0.384615384615385,0.,-0.923076923076923));
#144=DIRECTION('center_axis',(0.,1.,0.));
#145=DIRECTION('ref_axis',(-0.384615384615385,0.,-0.923076923076923));
#146=DIRECTION('center_axis',(0.,1.,0.));
#147=DIRECTION('ref_axis',(0.,0.,1.));
#148=DIRECTION('center_axis',(0.,1.,0.));
#149=DIRECTION('ref_axis',(0.,0.,1.));
#150=CARTESIAN_POINT('',(0.,0.,0.));
#151=CARTESIAN_POINT('Origin',(0.,7.5,-2.));
#152=CARTESIAN_POINT('',(-1.621,7.5,-3.10199274660661));
#153=CARTESIAN_POINT('Ctrl Pts',(-1.621,7.5,-3.10199274660661));
#154=CARTESIAN_POINT('Ctrl Pts',(-1.621,7.70723235522137,-3.10199274660661));
#155=CARTESIAN_POINT('Ctrl Pts',(-1.57893525288369,7.92561595973744,-3.12496737806697));
#156=CARTESIAN_POINT('Ctrl Pts',(-1.41265127195196,8.32377351693771,-3.20357195296665));
#157=CARTESIAN_POINT('Ctrl Pts',(-1.28854331886018,8.50389686574661,-3.25765950701633));
#158=CARTESIAN_POINT('Ctrl Pts',(-1.00417132481587,8.78826885979092,-3.35622434795502));
#159=CARTESIAN_POINT('Ctrl Pts',(-0.823950746327974,8.91258101198486,-3.40765678699093));
#160=CARTESIAN_POINT('Ctrl Pts',(-0.425388448596781,9.07902651174295,-3.47995176576704));
#161=CARTESIAN_POINT('Ctrl Pts',(-0.20683272403881,9.121,-3.5));
#162=CARTESIAN_POINT('Ctrl Pts',(0.20683272403881,9.121,-3.5));
#163=CARTESIAN_POINT('Ctrl Pts',(0.425388448596782,9.07902651174295,-3.47995176576704));
#164=CARTESIAN_POINT('Ctrl Pts',(0.823950746327975,8.91258101198486,-3.40765678699093));
#165=CARTESIAN_POINT('Ctrl Pts',(1.00417132481587,8.78826885979092,-3.35622434795502));
#166=CARTESIAN_POINT('Ctrl Pts',(1.28854331886018,8.50389686574661,-3.25765950701633));
#167=CARTESIAN_POINT('Ctrl Pts',(1.41265127195196,8.32377351693771,-3.20357195296665));
#168=CARTESIAN_POINT('Ctrl Pts',(1.57893525288369,7.92561595973744,-3.12496737806697));
#169=CARTESIAN_POINT('Ctrl Pts',(1.621,7.70723235522137,-3.10199274660661));
#170=CARTESIAN_POINT('Ctrl Pts',(1.621,7.29276764477863,-3.10199274660661));
#171=CARTESIAN_POINT('Ctrl Pts',(1.57893525288369,7.07438404026256,-3.12496737806697));
#172=CARTESIAN_POINT('Ctrl Pts',(1.41265127195196,6.6762264830623,-3.20357195296665));
#173=CARTESIAN_POINT('Ctrl Pts',(1.28854331886018,6.49610313425339,-3.25765950701633));
#174=CARTESIAN_POINT('Ctrl Pts',(1.00417132481587,6.21173114020908,-3.35622434795502));
#175=CARTESIAN_POINT('Ctrl Pts',(0.823950746327975,6.08741898801514,-3.40765678699093));
#176=CARTESIAN_POINT('Ctrl Pts',(0.425388448596781,5.92097348825705,-3.47995176576704));
#177=CARTESIAN_POINT('Ctrl Pts',(0.20683272403881,5.879,-3.5));
#178=CARTESIAN_POINT('Ctrl Pts',(-0.20683272403881,5.879,-3.5));
#179=CARTESIAN_POINT('Ctrl Pts',(-0.425388448596781,5.92097348825705,-3.47995176576704));
#180=CARTESIAN_POINT('Ctrl Pts',(-0.823950746327975,6.08741898801514,-3.40765678699093));
#181=CARTESIAN_POINT('Ctrl Pts',(-1.00417132481587,6.21173114020908,-3.35622434795502));
#182=CARTESIAN_POINT('Ctrl Pts',(-1.28854331886018,6.49610313425339,-3.25765950701633));
#183=CARTESIAN_POINT('Ctrl Pts',(-1.41265127195196,6.6762264830623,-3.20357195296665));
#184=CARTESIAN_POINT('Ctrl Pts',(-1.57893525288369,7.07438404026256,-3.12496737806697));
#185=CARTESIAN_POINT('Ctrl Pts',(-1.621,7.29276764477863,-3.10199274660661));
#186=CARTESIAN_POINT('Ctrl Pts',(-1.621,7.5,-3.10199274660661));
#187=CARTESIAN_POINT('',(-1.621,7.5,-6.));
#188=CARTESIAN_POINT('Origin',(0.,7.5,-6.));
#189=CARTESIAN_POINT('Origin',(0.,0.,0.));
#190=CARTESIAN_POINT('',(-3.5,15.,4.28626379701574E-16));
#191=CARTESIAN_POINT('Origin',(0.,15.,0.));
#192=CARTESIAN_POINT('',(-3.5,0.,4.28626379701574E-16));
#193=CARTESIAN_POINT('Origin',(0.,0.,0.));
#194=CARTESIAN_POINT('Origin',(2.5,0.,-6.));
#195=CARTESIAN_POINT('',(2.5,0.,-6.));
#196=CARTESIAN_POINT('',(-2.5,0.,-6.));
#197=CARTESIAN_POINT('',(2.5,0.,-6.));
#198=CARTESIAN_POINT('',(-2.5,15.,-6.));
#199=CARTESIAN_POINT('',(-2.5,0.,-6.));
#200=CARTESIAN_POINT('',(2.5,15.,-6.));
#201=CARTESIAN_POINT('',(2.5,15.,-6.));
#202=CARTESIAN_POINT('',(2.5,0.,-6.));
#203=CARTESIAN_POINT('Origin',(0.,0.,0.));
#204=CARTESIAN_POINT('Origin',(0.,0.,0.));
#205=CARTESIAN_POINT('Origin',(0.,15.,0.));
#206=CARTESIAN_POINT('Origin',(-1.18631329583818E-15,15.,-0.17699055718256));
#207=CARTESIAN_POINT('Origin',(-1.18631329583818E-15,0.,-0.17699055718256));
#208=UNCERTAINTY_MEASURE_WITH_UNIT(LENGTH_MEASURE(0.01),#212,
'DISTANCE_ACCURACY_VALUE',
'Maximum model space distance between geometric entities at asserted c
onnectivities');
#209=UNCERTAINTY_MEASURE_WITH_UNIT(LENGTH_MEASURE(1.E-6),#212,
'DISTANCE_ACCURACY_VALUE',
'Maximum model space distance between geometric entities at asserted c
onnectivities');
#210=(
GEOMETRIC_REPRESENTATION_CONTEXT(3)
GLOBAL_UNCERTAINTY_ASSIGNED_CONTEXT((#208))
GLOBAL_UNIT_ASSIGNED_CONTEXT((#212,#215,#213))
REPRESENTATION_CONTEXT('','3D')
);
#211=(
GEOMETRIC_REPRESENTATION_CONTEXT(3)
GLOBAL_UNCERTAINTY_ASSIGNED_CONTEXT((#209))
GLOBAL_UNIT_ASSIGNED_CONTEXT((#212,#215,#213))
REPRESENTATION_CONTEXT('','3D')
);
#212=(
LENGTH_UNIT()
NAMED_UNIT(*)
SI_UNIT(.MILLI.,.METRE.)
);
#213=(
NAMED_UNIT(*)
SI_UNIT($,.STERADIAN.)
SOLID_ANGLE_UNIT()
);
#214=DIMENSIONAL_EXPONENTS(0.,0.,0.,0.,0.,0.,0.);
#215=(
CONVERSION_BASED_UNIT('degree',#217)
NAMED_UNIT(#214)
PLANE_ANGLE_UNIT()
);
#216=(
NAMED_UNIT(*)
PLANE_ANGLE_UNIT()
SI_UNIT($,.RADIAN.)
);
#217=PLANE_ANGLE_MEASURE_WITH_UNIT(PLANE_ANGLE_MEASURE(0.01745329252),#216);
#218=SHAPE_DEFINITION_REPRESENTATION(#219,#220);
#219=PRODUCT_DEFINITION_SHAPE('',$,#222);
#220=SHAPE_REPRESENTATION('',(#110),#210);
#221=PRODUCT_DEFINITION_CONTEXT('part definition',#226,'design');
#222=PRODUCT_DEFINITION('SyringeHolder','SyringeHolder',#223,#221);
#223=PRODUCT_DEFINITION_FORMATION('',$,#228);
#224=PRODUCT_RELATED_PRODUCT_CATEGORY('SyringeHolder','SyringeHolder',(#228));
#225=APPLICATION_PROTOCOL_DEFINITION('international standard',
'automotive_design',2009,#226);
#226=APPLICATION_CONTEXT(
'Core Data for Automotive Mechanical Design Process');
#227=PRODUCT_CONTEXT('part definition',#226,'mechanical');
#228=PRODUCT('SyringeHolder','SyringeHolder',$,(#227));
#229=PRESENTATION_STYLE_ASSIGNMENT((#230));
#230=SURFACE_STYLE_USAGE(.BOTH.,#231);
#231=SURFACE_SIDE_STYLE('',(#232));
#232=SURFACE_STYLE_FILL_AREA(#233);
#233=FILL_AREA_STYLE('',(#234));
#234=FILL_AREA_STYLE_COLOUR('',#235);
#235=COLOUR_RGB('',0.749019607843137,0.749019607843137,0.749019607843137);
ENDSEC;
END-ISO-10303-21;
