ISO-10303-21;
HEADER;
FILE_DESCRIPTION (( 'STEP AP214' ),
    '1' );
FILE_NAME ('OpenSPIM_Stilt_Vertical-slit.STEP',
    '2012-05-25T16:57:25',
    ( 'huiskenlab' ),
    ( '' ),
    'SwSTEP 2.0',
    'SolidWorks 2012',
    '' );
FILE_SCHEMA (( 'AUTOMOTIVE_DESIGN' ));
ENDSEC;

DATA;
#1 = ADVANCED_BREP_SHAPE_REPRESENTATION ( 'OpenSPIM_Stilt_Vertical-slit', ( #2, #232 ), #237 ) ;
#2 = MANIFOLD_SOLID_BREP ( 'Revolve1', #67 ) ;
#3 = UNCERTAINTY_MEASURE_WITH_UNIT (LENGTH_MEASURE( 1.000000000000000100E-005 ), #112, 'distance_accuracy_value', 'NONE');
#4 = UNCERTAINTY_MEASURE_WITH_UNIT (LENGTH_MEASURE( 1.000000000000000100E-005 ), #48, 'distance_accuracy_value', 'NONE');
#5 = UNCERTAINTY_MEASURE_WITH_UNIT (LENGTH_MEASURE( 1.000000000000000100E-005 ), #287, 'distance_accuracy_value', 'NONE');
#6 = CARTESIAN_POINT ( 'NONE',  ( 0.0000000000000000000, 0.0000000000000000000, 0.0000000000000000000 ) ) ;
#7 = DIRECTION ( 'NONE',  ( -0.0000000000000000000, -1.000000000000000000, -0.0000000000000000000 ) ) ;
#8 = DIRECTION ( 'NONE',  ( 0.0000000000000000000, 0.0000000000000000000, -1.000000000000000000 ) ) ;
#9 = CARTESIAN_POINT ( 'NONE',  ( 0.0000000000000000000, -2.299999999999999800, 0.0000000000000000000 ) ) ;
#10 = DIRECTION ( 'NONE',  ( -0.0000000000000000000, -1.000000000000000000, -0.0000000000000000000 ) ) ;
#11 = DIRECTION ( 'NONE',  ( 0.0000000000000000000, 0.0000000000000000000, -1.000000000000000000 ) ) ;
#12 = FILL_AREA_STYLE_COLOUR ( '', #186 ) ;
#13 = CARTESIAN_POINT ( 'NONE',  ( 0.0000000000000000000, 13.17000000000000200, 0.0000000000000000000 ) ) ;
#14 = DIRECTION ( 'NONE',  ( -0.0000000000000000000, -1.000000000000000000, -0.0000000000000000000 ) ) ;
#15 = DIRECTION ( 'NONE',  ( 0.0000000000000000000, 0.0000000000000000000, -1.000000000000000000 ) ) ;
#16 = CARTESIAN_POINT ( 'NONE',  ( 0.0000000000000000000, 13.17000000000000200, 0.0000000000000000000 ) ) ;
#17 = DIRECTION ( 'NONE',  ( -0.0000000000000000000, -1.000000000000000000, -0.0000000000000000000 ) ) ;
#18 = DIRECTION ( 'NONE',  ( 0.0000000000000000000, 0.0000000000000000000, -1.000000000000000000 ) ) ;
#19 = ADVANCED_FACE ( 'NONE', ( #147 ), #126, .T. ) ;
#20 = DIRECTION ( 'NONE',  ( -0.0000000000000000000, -1.000000000000000000, -0.0000000000000000000 ) ) ;
#21 = DIRECTION ( 'NONE',  ( 0.0000000000000000000, 0.0000000000000000000, -1.000000000000000000 ) ) ;
#22 = CARTESIAN_POINT ( 'NONE',  ( 2.602374448188124900E-016, -6.685442808790978300, 2.124999999999999100 ) ) ;
#23 = DIRECTION ( 'NONE',  ( -0.0000000000000000000, -1.000000000000000000, -0.0000000000000000000 ) ) ;
#24 = DIRECTION ( 'NONE',  ( -0.0000000000000000000, -1.000000000000000000, -0.0000000000000000000 ) ) ;
#25 = CARTESIAN_POINT ( 'NONE',  ( 0.0000000000000000000, 0.0000000000000000000, 0.0000000000000000000 ) ) ;
#26 = DIRECTION ( 'NONE',  ( -0.0000000000000000000, -1.000000000000000000, -0.0000000000000000000 ) ) ;
#27 = DIRECTION ( 'NONE',  ( 0.0000000000000000000, 0.0000000000000000000, -1.000000000000000000 ) ) ;
#28 = CARTESIAN_POINT ( 'NONE',  ( 0.0000000000000000000, -6.685442808790978300, -8.000000000000000000 ) ) ;
#29 = CARTESIAN_POINT ( 'NONE',  ( 0.0000000000000000000, -6.685442808790978300, -3.349999999999999600 ) ) ;
#30 = CARTESIAN_POINT ( 'NONE',  ( 0.0000000000000000000, -2.299999999999999800, 0.0000000000000000000 ) ) ;
#31 = DIRECTION ( 'NONE',  ( -0.0000000000000000000, -1.000000000000000000, -0.0000000000000000000 ) ) ;
#32 = DIRECTION ( 'NONE',  ( 0.0000000000000000000, 0.0000000000000000000, -1.000000000000000000 ) ) ;
#33 = DIRECTION ( 'NONE',  ( -0.0000000000000000000, -1.000000000000000000, -0.0000000000000000000 ) ) ;
#34 = ADVANCED_FACE ( 'NONE', ( #149 ), #180, .T. ) ;
#35 = ADVANCED_FACE ( 'NONE', ( #182, #144 ), #118, .F. ) ;
#36 = ADVANCED_FACE ( 'NONE', ( #131, #124 ), #197, .F. ) ;
#37 = ADVANCED_FACE ( 'NONE', ( #122 ), #153, .F. ) ;
#38 = ADVANCED_FACE ( 'NONE', ( #121 ), #123, .T. ) ;
#39 = ADVANCED_FACE ( 'NONE', ( #165, #173 ), #208, .F. ) ;
#40 = ADVANCED_FACE ( 'NONE', ( #135 ), #119, .T. ) ;
#41 = ADVANCED_FACE ( 'NONE', ( #172 ), #139, .F. ) ;
#42 =( NAMED_UNIT ( * ) PLANE_ANGLE_UNIT ( ) SI_UNIT ( $, .RADIAN. ) );
#43 =( NAMED_UNIT ( * ) SI_UNIT ( $, .STERADIAN. ) SOLID_ANGLE_UNIT ( ) );
#44 = APPLICATION_CONTEXT ( 'automotive_design' ) ;
#45 = FILL_AREA_STYLE ('',( #12 ) ) ;
#46 = SURFACE_SIDE_STYLE ('',( #190 ) ) ;
#47 = SURFACE_STYLE_USAGE ( .BOTH. , #46 ) ;
#48 =( LENGTH_UNIT ( ) NAMED_UNIT ( * ) SI_UNIT ( .MILLI., .METRE. ) );
#49 =( NAMED_UNIT ( * ) PLANE_ANGLE_UNIT ( ) SI_UNIT ( $, .RADIAN. ) );
#50 =( NAMED_UNIT ( * ) SI_UNIT ( $, .STERADIAN. ) SOLID_ANGLE_UNIT ( ) );
#51 = CARTESIAN_POINT ( 'NONE',  ( 0.0000000000000000000, 0.0000000000000000000, 0.0000000000000000000 ) ) ;
#52 = DIRECTION ( 'NONE',  ( 0.0000000000000000000, 0.0000000000000000000, 1.000000000000000000 ) ) ;
#53 = DIRECTION ( 'NONE',  ( 1.000000000000000000, 0.0000000000000000000, 0.0000000000000000000 ) ) ;
#54 = APPLICATION_PROTOCOL_DEFINITION ( 'draft international standard', 'automotive_design', 1998, #44 ) ;
#55 = PRODUCT_CONTEXT ( 'NONE', #44, 'mechanical' ) ;
#56 = APPLICATION_CONTEXT ( 'automotive_design' ) ;
#57 = APPLICATION_PROTOCOL_DEFINITION ( 'draft international standard', 'automotive_design', 1998, #56 ) ;
#58 = CARTESIAN_POINT ( 'NONE',  ( 0.0000000000000000000, 0.0000000000000000000, 0.0000000000000000000 ) ) ;
#59 = DIRECTION ( 'NONE',  ( -0.0000000000000000000, -1.000000000000000000, -0.0000000000000000000 ) ) ;
#60 = DIRECTION ( 'NONE',  ( 0.0000000000000000000, 0.0000000000000000000, -1.000000000000000000 ) ) ;
#61 = CARTESIAN_POINT ( 'NONE',  ( 0.0000000000000000000, -2.299999999999999800, 0.0000000000000000000 ) ) ;
#62 = DIRECTION ( 'NONE',  ( -0.0000000000000000000, -1.000000000000000000, -0.0000000000000000000 ) ) ;
#63 = DIRECTION ( 'NONE',  ( 0.0000000000000000000, 0.0000000000000000000, -1.000000000000000000 ) ) ;
#64 = CARTESIAN_POINT ( 'NONE',  ( 0.0000000000000000000, 13.17000000000000200, 0.0000000000000000000 ) ) ;
#65 = DIRECTION ( 'NONE',  ( -0.0000000000000000000, -1.000000000000000000, -0.0000000000000000000 ) ) ;
#66 = DIRECTION ( 'NONE',  ( 0.0000000000000000000, 0.0000000000000000000, -1.000000000000000000 ) ) ;
#67 = CLOSED_SHELL ( 'NONE', ( #19, #37, #40, #34, #36, #41, #39, #38, #35 ) ) ;
#68 = ORIENTED_EDGE ( 'NONE', *, *, #274, .F. ) ;
#69 = ORIENTED_EDGE ( 'NONE', *, *, #267, .F. ) ;
#70 = EDGE_LOOP ( 'NONE', ( #154, #69 ) ) ;
#71 = ORIENTED_EDGE ( 'NONE', *, *, #280, .T. ) ;
#72 = ORIENTED_EDGE ( 'NONE', *, *, #269, .F. ) ;
#73 = EDGE_LOOP ( 'NONE', ( #181, #103 ) ) ;
#74 = EDGE_LOOP ( 'NONE', ( #92, #68 ) ) ;
#75 = ORIENTED_EDGE ( 'NONE', *, *, #273, .F. ) ;
#76 = EDGE_LOOP ( 'NONE', ( #86, #166, #98, #100 ) ) ;
#77 = ORIENTED_EDGE ( 'NONE', *, *, #267, .T. ) ;
#78 = ORIENTED_EDGE ( 'NONE', *, *, #249, .F. ) ;
#79 = ORIENTED_EDGE ( 'NONE', *, *, #276, .T. ) ;
#80 = ORIENTED_EDGE ( 'NONE', *, *, #268, .T. ) ;
#81 = EDGE_LOOP ( 'NONE', ( #175, #93 ) ) ;
#82 = ORIENTED_EDGE ( 'NONE', *, *, #269, .T. ) ;
#83 = ORIENTED_EDGE ( 'NONE', *, *, #277, .F. ) ;
#84 = EDGE_LOOP ( 'NONE', ( #71, #101, #83, #75 ) ) ;
#85 = EDGE_LOOP ( 'NONE', ( #91, #89 ) ) ;
#86 = ORIENTED_EDGE ( 'NONE', *, *, #268, .F. ) ;
#87 = ORIENTED_EDGE ( 'NONE', *, *, #279, .T. ) ;
#88 = ORIENTED_EDGE ( 'NONE', *, *, #263, .F. ) ;
#89 = ORIENTED_EDGE ( 'NONE', *, *, #279, .F. ) ;
#90 = ORIENTED_EDGE ( 'NONE', *, *, #278, .T. ) ;
#91 = ORIENTED_EDGE ( 'NONE', *, *, #280, .F. ) ;
#92 = ORIENTED_EDGE ( 'NONE', *, *, #262, .F. ) ;
#93 = ORIENTED_EDGE ( 'NONE', *, *, #275, .T. ) ;
#94 = ORIENTED_EDGE ( 'NONE', *, *, #264, .F. ) ;
#95 = ORIENTED_EDGE ( 'NONE', *, *, #262, .T. ) ;
#96 = ORIENTED_EDGE ( 'NONE', *, *, #276, .F. ) ;
#97 = ORIENTED_EDGE ( 'NONE', *, *, #271, .F. ) ;
#98 = ORIENTED_EDGE ( 'NONE', *, *, #272, .T. ) ;
#99 = ORIENTED_EDGE ( 'NONE', *, *, #263, .T. ) ;
#100 = ORIENTED_EDGE ( 'NONE', *, *, #275, .F. ) ;
#101 = ORIENTED_EDGE ( 'NONE', *, *, #249, .T. ) ;
#102 = SURFACE_STYLE_FILL_AREA ( #109 ) ;
#103 = ORIENTED_EDGE ( 'NONE', *, *, #270, .T. ) ;
#104 = DIRECTION ( 'NONE',  ( -0.0000000000000000000, -1.000000000000000000, -0.0000000000000000000 ) ) ;
#105 = CARTESIAN_POINT ( 'NONE',  ( 0.0000000000000000000, -6.685442808790978300, 0.0000000000000000000 ) ) ;
#106 = DIRECTION ( 'NONE',  ( 0.0000000000000000000, 0.0000000000000000000, -1.000000000000000000 ) ) ;
#107 = DIRECTION ( 'NONE',  ( 0.0000000000000000000, 0.0000000000000000000, -1.000000000000000000 ) ) ;
#108 = FILL_AREA_STYLE_COLOUR ( '', #125 ) ;
#109 = FILL_AREA_STYLE ('',( #108 ) ) ;
#110 = SURFACE_SIDE_STYLE ('',( #102 ) ) ;
#111 = SURFACE_STYLE_USAGE ( .BOTH. , #110 ) ;
#112 =( LENGTH_UNIT ( ) NAMED_UNIT ( * ) SI_UNIT ( .MILLI., .METRE. ) );
#113 =( NAMED_UNIT ( * ) PLANE_ANGLE_UNIT ( ) SI_UNIT ( $, .RADIAN. ) );
#114 =( NAMED_UNIT ( * ) SI_UNIT ( $, .STERADIAN. ) SOLID_ANGLE_UNIT ( ) );
#115 = CARTESIAN_POINT ( 'NONE',  ( 0.0000000000000000000, -6.685442808790978300, 0.0000000000000000000 ) ) ;
#116 = DIRECTION ( 'NONE',  ( -0.0000000000000000000, -1.000000000000000000, -0.0000000000000000000 ) ) ;
#117 = CARTESIAN_POINT ( 'NONE',  ( -3.350000000000000100, -9.595400089824835800E-017, 0.0000000000000000000 ) ) ;
#118 = PLANE ( 'NONE',  #257 ) ;
#119 = CYLINDRICAL_SURFACE ( 'NONE', #250, 3.349999999999999600 ) ;
#120 = EDGE_LOOP ( 'NONE', ( #95, #80, #97, #151 ) ) ;
#121 = FACE_OUTER_BOUND ( 'NONE', #140, .T. ) ;
#122 = FACE_OUTER_BOUND ( 'NONE', #127, .T. ) ;
#123 = CYLINDRICAL_SURFACE ( 'NONE', #253, 8.000000000000000000 ) ;
#124 = FACE_OUTER_BOUND ( 'NONE', #81, .T. ) ;
#125 = COLOUR_RGB ( '',0.7921568627450980000, 0.8196078431372548800, 0.9333333333333333500 ) ;
#126 = CYLINDRICAL_SURFACE ( 'NONE', #259, 8.000000000000000000 ) ;
#127 = EDGE_LOOP ( 'NONE', ( #94, #82, #77, #88 ) ) ;
#128 = CIRCLE ( 'NONE', #251, 2.125000000000000000 ) ;
#129 = LINE ( 'NONE', #283, #155 ) ;
#130 = VERTEX_POINT ( 'NONE', #222 ) ;
#131 = FACE_BOUND ( 'NONE', #70, .T. ) ;
#132 = VERTEX_POINT ( 'NONE', #218 ) ;
#133 = CIRCLE ( 'NONE', #245, 3.349999999999999600 ) ;
#134 = LINE ( 'NONE', #22, #152 ) ;
#135 = FACE_OUTER_BOUND ( 'NONE', #120, .T. ) ;
#136 = CIRCLE ( 'NONE', #244, 3.350000000000000100 ) ;
#137 = VECTOR ( 'NONE', #24, 1000.000000000000000 ) ;
#138 = LINE ( 'NONE', #293, #157 ) ;
#139 = CYLINDRICAL_SURFACE ( 'NONE', #248, 2.124999999999999100 ) ;
#140 = EDGE_LOOP ( 'NONE', ( #78, #87, #167, #171 ) ) ;
#141 = VERTEX_POINT ( 'NONE', #216 ) ;
#142 = CIRCLE ( 'NONE', #255, 3.350000000000000100 ) ;
#143 = VERTEX_POINT ( 'NONE', #219 ) ;
#144 = FACE_OUTER_BOUND ( 'NONE', #73, .T. ) ;
#145 = VECTOR ( 'NONE', #282, 1000.000000000000000 ) ;
#146 = PRESENTATION_STYLE_ASSIGNMENT (( #111 ) ) ;
#147 = FACE_OUTER_BOUND ( 'NONE', #84, .T. ) ;
#148 = VERTEX_POINT ( 'NONE', #223 ) ;
#149 = FACE_OUTER_BOUND ( 'NONE', #76, .T. ) ;
#150 = VERTEX_POINT ( 'NONE', #220 ) ;
#151 = ORIENTED_EDGE ( 'NONE', *, *, #272, .F. ) ;
#152 = VECTOR ( 'NONE', #23, 1000.000000000000000 ) ;
#153 = CYLINDRICAL_SURFACE ( 'NONE', #254, 2.124999999999999100 ) ;
#154 = ORIENTED_EDGE ( 'NONE', *, *, #278, .F. ) ;
#155 = VECTOR ( 'NONE', #288, 1000.000000000000000 ) ;
#156 = VECTOR ( 'NONE', #33, 1000.000000000000000 ) ;
#157 = VECTOR ( 'NONE', #289, 1000.000000000000000 ) ;
#158 = VERTEX_POINT ( 'NONE', #225 ) ;
#159 = LINE ( 'NONE', #207, #145 ) ;
#160 = CIRCLE ( 'NONE', #243, 3.349999999999999600 ) ;
#161 = VERTEX_POINT ( 'NONE', #226 ) ;
#162 = VERTEX_POINT ( 'NONE', #227 ) ;
#163 = CIRCLE ( 'NONE', #242, 2.125000000000000000 ) ;
#164 = VERTEX_POINT ( 'NONE', #228 ) ;
#165 = FACE_OUTER_BOUND ( 'NONE', #85, .T. ) ;
#166 = ORIENTED_EDGE ( 'NONE', *, *, #274, .T. ) ;
#167 = ORIENTED_EDGE ( 'NONE', *, *, #273, .T. ) ;
#168 = VERTEX_POINT ( 'NONE', #221 ) ;
#169 = EDGE_LOOP ( 'NONE', ( #79, #170 ) ) ;
#170 = ORIENTED_EDGE ( 'NONE', *, *, #264, .T. ) ;
#171 = ORIENTED_EDGE ( 'NONE', *, *, #270, .F. ) ;
#172 = FACE_OUTER_BOUND ( 'NONE', #177, .T. ) ;
#173 = FACE_BOUND ( 'NONE', #169, .T. ) ;
#174 = LINE ( 'NONE', #29, #137 ) ;
#175 = ORIENTED_EDGE ( 'NONE', *, *, #271, .T. ) ;
#176 = CIRCLE ( 'NONE', #246, 8.000000000000000000 ) ;
#177 = EDGE_LOOP ( 'NONE', ( #72, #96, #99, #90 ) ) ;
#178 = LINE ( 'NONE', #28, #156 ) ;
#179 = CIRCLE ( 'NONE', #247, 2.124999999999998200 ) ;
#180 = CYLINDRICAL_SURFACE ( 'NONE', #258, 3.349999999999999600 ) ;
#181 = ORIENTED_EDGE ( 'NONE', *, *, #277, .T. ) ;
#182 = FACE_BOUND ( 'NONE', #74, .T. ) ;
#183 = VERTEX_POINT ( 'NONE', #224 ) ;
#184 = CIRCLE ( 'NONE', #241, 8.000000000000000000 ) ;
#185 = PRESENTATION_STYLE_ASSIGNMENT (( #47 ) ) ;
#186 = COLOUR_RGB ( '',0.7921568627450980000, 0.8196078431372548800, 0.9333333333333333500 ) ;
#187 = CIRCLE ( 'NONE', #240, 2.124999999999998200 ) ;
#188 = CIRCLE ( 'NONE', #239, 8.000000000000000000 ) ;
#189 = CIRCLE ( 'NONE', #238, 8.000000000000000000 ) ;
#190 = SURFACE_STYLE_FILL_AREA ( #45 ) ;
#191 = SHAPE_DEFINITION_REPRESENTATION ( #193, #1 ) ;
#192 = PRODUCT ( 'OpenSPIM_Stilt_Vertical-slit', 'OpenSPIM_Stilt_Vertical-slit', '', ( #55 ) ) ;
#193 = PRODUCT_DEFINITION_SHAPE ( 'NONE', 'NONE',  #231 ) ;
#194 = PRODUCT_DEFINITION_CONTEXT ( 'detailed design', #56, 'design' ) ;
#195 = CARTESIAN_POINT ( 'NONE',  ( -3.349999999999999600, -2.299999999999999800, 0.0000000000000000000 ) ) ;
#196 = DIRECTION ( 'NONE',  ( -0.0000000000000000000, -1.000000000000000000, -0.0000000000000000000 ) ) ;
#197 = PLANE ( 'NONE',  #256 ) ;
#198 = DIRECTION ( 'NONE',  ( 0.0000000000000000000, 0.0000000000000000000, -1.000000000000000000 ) ) ;
#199 = DIRECTION ( 'NONE',  ( 0.0000000000000000000, 1.000000000000000000, 0.0000000000000000000 ) ) ;
#200 = DIRECTION ( 'NONE',  ( 0.0000000000000000000, -0.0000000000000000000, 1.000000000000000000 ) ) ;
#201 = CARTESIAN_POINT ( 'NONE',  ( 0.0000000000000000000, -6.685442808790978300, 0.0000000000000000000 ) ) ;
#202 = DIRECTION ( 'NONE',  ( 0.0000000000000000000, 0.0000000000000000000, -1.000000000000000000 ) ) ;
#203 = CARTESIAN_POINT ( 'NONE',  ( 0.0000000000000000000, -6.685442808790978300, 0.0000000000000000000 ) ) ;
#204 = DIRECTION ( 'NONE',  ( -0.0000000000000000000, -1.000000000000000000, -0.0000000000000000000 ) ) ;
#205 = DIRECTION ( 'NONE',  ( 0.0000000000000000000, -1.000000000000000000, -0.0000000000000000000 ) ) ;
#206 = CARTESIAN_POINT ( 'NONE',  ( -8.000000000000000000, 13.17000000000000000, 0.0000000000000000000 ) ) ;
#207 = CARTESIAN_POINT ( 'NONE',  ( 9.797174393178825700E-016, -6.685442808790978300, 8.000000000000000000 ) ) ;
#208 = PLANE ( 'NONE',  #252 ) ;
#209 = DIRECTION ( 'NONE',  ( -0.0000000000000000000, -1.000000000000000000, -0.0000000000000000000 ) ) ;
#210 = DIRECTION ( 'NONE',  ( 0.0000000000000000000, 0.0000000000000000000, -1.000000000000000000 ) ) ;
#211 = CARTESIAN_POINT ( 'NONE',  ( 0.0000000000000000000, -6.685442808790978300, 0.0000000000000000000 ) ) ;
#212 = DIRECTION ( 'NONE',  ( 0.0000000000000000000, -0.0000000000000000000, 1.000000000000000000 ) ) ;
#213 = DIRECTION ( 'NONE',  ( 0.0000000000000000000, 0.0000000000000000000, -1.000000000000000000 ) ) ;
#214 = CARTESIAN_POINT ( 'NONE',  ( 0.0000000000000000000, -6.685442808790978300, 0.0000000000000000000 ) ) ;
#215 = DIRECTION ( 'NONE',  ( -0.0000000000000000000, -1.000000000000000000, -0.0000000000000000000 ) ) ;
#216 = CARTESIAN_POINT ( 'NONE',  ( 0.0000000000000000000, -2.299999999999999800, -3.349999999999999600 ) ) ;
#217 = DIRECTION ( 'NONE',  ( 0.0000000000000000000, 0.0000000000000000000, -1.000000000000000000 ) ) ;
#218 = CARTESIAN_POINT ( 'NONE',  ( 9.797174393178825700E-016, 0.0000000000000000000, 8.000000000000000000 ) ) ;
#219 = CARTESIAN_POINT ( 'NONE',  ( 0.0000000000000000000, 13.17000000000000200, -2.125000000000000000 ) ) ;
#220 = CARTESIAN_POINT ( 'NONE',  ( 2.602374448188124400E-016, -2.299999999999999800, 2.124999999999998200 ) ) ;
#221 = CARTESIAN_POINT ( 'NONE',  ( 4.102566777143633800E-016, 0.0000000000000000000, 3.350000000000000500 ) ) ;
#222 = CARTESIAN_POINT ( 'NONE',  ( 9.797174393178825700E-016, 13.17000000000000200, 8.000000000000000000 ) ) ;
#223 = CARTESIAN_POINT ( 'NONE',  ( 0.0000000000000000000, 0.0000000000000000000, -3.350000000000000100 ) ) ;
#224 = CARTESIAN_POINT ( 'NONE',  ( 2.602374448188125300E-016, 13.17000000000000200, 2.125000000000000000 ) ) ;
#225 = CARTESIAN_POINT ( 'NONE',  ( 0.0000000000000000000, 13.17000000000000200, -8.000000000000000000 ) ) ;
#226 = CARTESIAN_POINT ( 'NONE',  ( 4.102566777143632800E-016, -2.299999999999999800, 3.349999999999999600 ) ) ;
#227 = CARTESIAN_POINT ( 'NONE',  ( 0.0000000000000000000, 0.0000000000000000000, -8.000000000000000000 ) ) ;
#228 = CARTESIAN_POINT ( 'NONE',  ( 0.0000000000000000000, -2.299999999999999800, -2.124999999999998200 ) ) ;
#229 = PRODUCT_RELATED_PRODUCT_CATEGORY ( 'part', '', ( #192 ) ) ;
#230 = PRODUCT_DEFINITION_FORMATION_WITH_SPECIFIED_SOURCE ( 'ANY', '', #192, .NOT_KNOWN. ) ;
#231 = PRODUCT_DEFINITION ( 'UNKNOWN', '', #230, #194 ) ;
#232 = AXIS2_PLACEMENT_3D ( 'NONE', #51, #52, #53 ) ;
#233 =( GEOMETRIC_REPRESENTATION_CONTEXT ( 3 ) GLOBAL_UNCERTAINTY_ASSIGNED_CONTEXT ( ( #4 ) ) GLOBAL_UNIT_ASSIGNED_CONTEXT ( ( #48, #49, #50 ) ) REPRESENTATION_CONTEXT ( 'NONE', 'WORKASPACE' ) );
#234 = MECHANICAL_DESIGN_GEOMETRIC_PRESENTATION_REPRESENTATION (  '', ( #236 ), #233 ) ;
#235 = PRESENTATION_LAYER_ASSIGNMENT (  '', '', ( #236 ) ) ;
#236 = STYLED_ITEM ( 'NONE', ( #185 ), #1 ) ;
#237 =( GEOMETRIC_REPRESENTATION_CONTEXT ( 3 ) GLOBAL_UNCERTAINTY_ASSIGNED_CONTEXT ( ( #5 ) ) GLOBAL_UNIT_ASSIGNED_CONTEXT ( ( #287, #42, #43 ) ) REPRESENTATION_CONTEXT ( 'NONE', 'WORKASPACE' ) );
#238 = AXIS2_PLACEMENT_3D ( 'NONE', #16, #17, #18 ) ;
#239 = AXIS2_PLACEMENT_3D ( 'NONE', #13, #14, #15 ) ;
#240 = AXIS2_PLACEMENT_3D ( 'NONE', #9, #10, #11 ) ;
#241 = AXIS2_PLACEMENT_3D ( 'NONE', #6, #7, #8 ) ;
#242 = AXIS2_PLACEMENT_3D ( 'NONE', #64, #65, #66 ) ;
#243 = AXIS2_PLACEMENT_3D ( 'NONE', #61, #62, #63 ) ;
#244 = AXIS2_PLACEMENT_3D ( 'NONE', #58, #59, #60 ) ;
#245 = AXIS2_PLACEMENT_3D ( 'NONE', #30, #31, #32 ) ;
#246 = AXIS2_PLACEMENT_3D ( 'NONE', #25, #26, #27 ) ;
#247 = AXIS2_PLACEMENT_3D ( 'NONE', #294, #20, #21 ) ;
#248 = AXIS2_PLACEMENT_3D ( 'NONE', #214, #215, #217 ) ;
#249 = EDGE_CURVE ( 'NONE', #130, #132, #159, .T. ) ;
#250 = AXIS2_PLACEMENT_3D ( 'NONE', #211, #209, #213 ) ;
#251 = AXIS2_PLACEMENT_3D ( 'NONE', #290, #291, #292 ) ;
#252 = AXIS2_PLACEMENT_3D ( 'NONE', #206, #205, #210 ) ;
#253 = AXIS2_PLACEMENT_3D ( 'NONE', #203, #204, #202 ) ;
#254 = AXIS2_PLACEMENT_3D ( 'NONE', #201, #196, #198 ) ;
#255 = AXIS2_PLACEMENT_3D ( 'NONE', #284, #285, #286 ) ;
#256 = AXIS2_PLACEMENT_3D ( 'NONE', #195, #199, #200 ) ;
#257 = AXIS2_PLACEMENT_3D ( 'NONE', #117, #281, #212 ) ;
#258 = AXIS2_PLACEMENT_3D ( 'NONE', #105, #116, #106 ) ;
#259 = AXIS2_PLACEMENT_3D ( 'NONE', #115, #104, #107 ) ;
#260 = STYLED_ITEM ( 'NONE', ( #146 ), #2 ) ;
#261 =( GEOMETRIC_REPRESENTATION_CONTEXT ( 3 ) GLOBAL_UNCERTAINTY_ASSIGNED_CONTEXT ( ( #3 ) ) GLOBAL_UNIT_ASSIGNED_CONTEXT ( ( #112, #113, #114 ) ) REPRESENTATION_CONTEXT ( 'NONE', 'WORKASPACE' ) );
#262 = EDGE_CURVE ( 'NONE', #148, #168, #142, .T. ) ;
#263 = EDGE_CURVE ( 'NONE', #143, #164, #129, .T. ) ;
#264 = EDGE_CURVE ( 'NONE', #183, #143, #128, .T. ) ;
#265 = PRESENTATION_LAYER_ASSIGNMENT (  '', '', ( #260 ) ) ;
#266 = MECHANICAL_DESIGN_GEOMETRIC_PRESENTATION_REPRESENTATION (  '', ( #260 ), #261 ) ;
#267 = EDGE_CURVE ( 'NONE', #150, #164, #179, .T. ) ;
#268 = EDGE_CURVE ( 'NONE', #168, #161, #138, .T. ) ;
#269 = EDGE_CURVE ( 'NONE', #183, #150, #134, .T. ) ;
#270 = EDGE_CURVE ( 'NONE', #132, #162, #176, .T. ) ;
#271 = EDGE_CURVE ( 'NONE', #141, #161, #133, .T. ) ;
#272 = EDGE_CURVE ( 'NONE', #148, #141, #174, .T. ) ;
#273 = EDGE_CURVE ( 'NONE', #158, #162, #178, .T. ) ;
#274 = EDGE_CURVE ( 'NONE', #168, #148, #136, .T. ) ;
#275 = EDGE_CURVE ( 'NONE', #161, #141, #160, .T. ) ;
#276 = EDGE_CURVE ( 'NONE', #143, #183, #163, .T. ) ;
#277 = EDGE_CURVE ( 'NONE', #162, #132, #184, .T. ) ;
#278 = EDGE_CURVE ( 'NONE', #164, #150, #187, .T. ) ;
#279 = EDGE_CURVE ( 'NONE', #130, #158, #188, .T. ) ;
#280 = EDGE_CURVE ( 'NONE', #158, #130, #189, .T. ) ;
#281 = DIRECTION ( 'NONE',  ( 0.0000000000000000000, 1.000000000000000000, 0.0000000000000000000 ) ) ;
#282 = DIRECTION ( 'NONE',  ( -0.0000000000000000000, -1.000000000000000000, -0.0000000000000000000 ) ) ;
#283 = CARTESIAN_POINT ( 'NONE',  ( 0.0000000000000000000, -6.685442808790978300, -2.124999999999999100 ) ) ;
#284 = CARTESIAN_POINT ( 'NONE',  ( 0.0000000000000000000, 0.0000000000000000000, 0.0000000000000000000 ) ) ;
#285 = DIRECTION ( 'NONE',  ( -0.0000000000000000000, -1.000000000000000000, -0.0000000000000000000 ) ) ;
#286 = DIRECTION ( 'NONE',  ( 0.0000000000000000000, 0.0000000000000000000, -1.000000000000000000 ) ) ;
#287 =( LENGTH_UNIT ( ) NAMED_UNIT ( * ) SI_UNIT ( .MILLI., .METRE. ) );
#288 = DIRECTION ( 'NONE',  ( -0.0000000000000000000, -1.000000000000000000, -0.0000000000000000000 ) ) ;
#289 = DIRECTION ( 'NONE',  ( -0.0000000000000000000, -1.000000000000000000, -0.0000000000000000000 ) ) ;
#290 = CARTESIAN_POINT ( 'NONE',  ( 0.0000000000000000000, 13.17000000000000200, 0.0000000000000000000 ) ) ;
#291 = DIRECTION ( 'NONE',  ( -0.0000000000000000000, -1.000000000000000000, -0.0000000000000000000 ) ) ;
#292 = DIRECTION ( 'NONE',  ( 0.0000000000000000000, 0.0000000000000000000, -1.000000000000000000 ) ) ;
#293 = CARTESIAN_POINT ( 'NONE',  ( 4.102566777143632800E-016, -6.685442808790978300, 3.349999999999999600 ) ) ;
#294 = CARTESIAN_POINT ( 'NONE',  ( 0.0000000000000000000, -2.299999999999999800, 0.0000000000000000000 ) ) ;
ENDSEC;
END-ISO-10303-21;
