ISO-10303-21;
HEADER;
FILE_DESCRIPTION (( 'STEP AP214' ),
    '1' );
FILE_NAME ('OpenSPIM_Stilt_1in-Mirror.STEP',
    '2012-05-25T19:00:27',
    ( 'huiskenlab' ),
    ( '' ),
    'SwSTEP 2.0',
    'SolidWorks 2012',
    '' );
FILE_SCHEMA (( 'AUTOMOTIVE_DESIGN' ));
ENDSEC;

DATA;
#1 = DIRECTION ( 'NONE',  ( 0.0000000000000000000, 0.0000000000000000000, -1.000000000000000000 ) ) ;
#2 = DIRECTION ( 'NONE',  ( -0.0000000000000000000, -1.000000000000000000, -0.0000000000000000000 ) ) ;
#3 = CARTESIAN_POINT ( 'NONE',  ( 0.0000000000000000000, 0.0000000000000000000, -10.00000000000000000 ) ) ;
#4 =( NAMED_UNIT ( * ) PLANE_ANGLE_UNIT ( ) SI_UNIT ( $, .RADIAN. ) );
#5 = SURFACE_SIDE_STYLE ('',( #145 ) ) ;
#6 = CARTESIAN_POINT ( 'NONE',  ( 0.0000000000000000000, -1.224646799147353300E-015, 0.0000000000000000000 ) ) ;
#7 = DIRECTION ( 'NONE',  ( 0.0000000000000000000, 0.0000000000000000000, 1.000000000000000000 ) ) ;
#8 = DIRECTION ( 'NONE',  ( 0.0000000000000000000, -1.000000000000000000, -0.0000000000000000000 ) ) ;
#9 = DIRECTION ( 'NONE',  ( -0.0000000000000000000, -1.000000000000000000, -0.0000000000000000000 ) ) ;
#10 =( NAMED_UNIT ( * ) SI_UNIT ( $, .STERADIAN. ) SOLID_ANGLE_UNIT ( ) );
#11 = DIRECTION ( 'NONE',  ( -0.0000000000000000000, -1.000000000000000000, -0.0000000000000000000 ) ) ;
#12 = FILL_AREA_STYLE ('',( #47 ) ) ;
#13 = CARTESIAN_POINT ( 'NONE',  ( 0.0000000000000000000, 0.0000000000000000000, 0.0000000000000000000 ) ) ;
#14 = CARTESIAN_POINT ( 'NONE',  ( 0.0000000000000000000, -1.224646799147353300E-015, 0.0000000000000000000 ) ) ;
#15 =( NAMED_UNIT ( * ) PLANE_ANGLE_UNIT ( ) SI_UNIT ( $, .RADIAN. ) );
#16 = CARTESIAN_POINT ( 'NONE',  ( -10.00000000000000000, 24.54999999999999700, 0.0000000000000000000 ) ) ;
#17 =( LENGTH_UNIT ( ) NAMED_UNIT ( * ) SI_UNIT ( .MILLI., .METRE. ) );
#18 = FILL_AREA_STYLE_COLOUR ( '', #125 ) ;
#19 = DIRECTION ( 'NONE',  ( -0.0000000000000000000, 1.000000000000000000, -0.0000000000000000000 ) ) ;
#20 = FILL_AREA_STYLE ('',( #18 ) ) ;
#21 = CARTESIAN_POINT ( 'NONE',  ( 1.224646799147353300E-015, -1.224646799147353300E-015, 10.00000000000000000 ) ) ;
#22 = DIRECTION ( 'NONE',  ( -0.0000000000000000000, 1.000000000000000000, -0.0000000000000000000 ) ) ;
#23 = SURFACE_SIDE_STYLE ('',( #140 ) ) ;
#24 = CARTESIAN_POINT ( 'NONE',  ( 1.224646799147353300E-015, 0.0000000000000000000, 10.00000000000000000 ) ) ;
#25 = CARTESIAN_POINT ( 'NONE',  ( 0.0000000000000000000, 24.54999999999999700, -10.00000000000000000 ) ) ;
#26 = APPLICATION_PROTOCOL_DEFINITION ( 'draft international standard', 'automotive_design', 1998, #64 ) ;
#27 = CARTESIAN_POINT ( 'NONE',  ( 0.0000000000000000000, -6.123233995736766300E-016, 0.0000000000000000000 ) ) ;
#28 =( NAMED_UNIT ( * ) SI_UNIT ( $, .STERADIAN. ) SOLID_ANGLE_UNIT ( ) );
#29 = DIRECTION ( 'NONE',  ( -0.0000000000000000000, 1.000000000000000000, -0.0000000000000000000 ) ) ;
#30 = CARTESIAN_POINT ( 'NONE',  ( 0.0000000000000000000, 24.54999999999999700, 1.999999999999990900 ) ) ;
#31 = DIRECTION ( 'NONE',  ( 0.0000000000000000000, 0.0000000000000000000, 1.000000000000000000 ) ) ;
#32 = CARTESIAN_POINT ( 'NONE',  ( 0.0000000000000000000, 24.54999999999999700, 0.0000000000000000000 ) ) ;
#33 = DIRECTION ( 'NONE',  ( 0.0000000000000000000, 0.0000000000000000000, -1.000000000000000000 ) ) ;
#34 = CARTESIAN_POINT ( 'NONE',  ( 0.0000000000000000000, 24.54999999999999700, 0.0000000000000000000 ) ) ;
#35 =( LENGTH_UNIT ( ) NAMED_UNIT ( * ) SI_UNIT ( .MILLI., .METRE. ) );
#36 = DIRECTION ( 'NONE',  ( -0.0000000000000000000, 1.000000000000000000, -0.0000000000000000000 ) ) ;
#37 = DIRECTION ( 'NONE',  ( -0.0000000000000000000, 1.000000000000000000, -0.0000000000000000000 ) ) ;
#38 = DIRECTION ( 'NONE',  ( 0.0000000000000000000, 0.0000000000000000000, -1.000000000000000000 ) ) ;
#39 = SURFACE_STYLE_USAGE ( .BOTH. , #5 ) ;
#40 =( NAMED_UNIT ( * ) SI_UNIT ( $, .STERADIAN. ) SOLID_ANGLE_UNIT ( ) );
#41 = DIRECTION ( 'NONE',  ( -0.0000000000000000000, -1.000000000000000000, -0.0000000000000000000 ) ) ;
#42 = DIRECTION ( 'NONE',  ( -0.0000000000000000000, -1.000000000000000000, -0.0000000000000000000 ) ) ;
#43 = DIRECTION ( 'NONE',  ( 0.0000000000000000000, 0.0000000000000000000, 1.000000000000000000 ) ) ;
#44 = APPLICATION_CONTEXT ( 'automotive_design' ) ;
#45 = CARTESIAN_POINT ( 'NONE',  ( 0.0000000000000000000, 24.54999999999999700, 0.0000000000000000000 ) ) ;
#46 = DIRECTION ( 'NONE',  ( -0.0000000000000000000, -1.000000000000000000, -0.0000000000000000000 ) ) ;
#47 = FILL_AREA_STYLE_COLOUR ( '', #149 ) ;
#48 = CARTESIAN_POINT ( 'NONE',  ( 0.0000000000000000000, 0.0000000000000000000, 0.0000000000000000000 ) ) ;
#49 = DIRECTION ( 'NONE',  ( 0.0000000000000000000, 0.0000000000000000000, -1.000000000000000000 ) ) ;
#50 = DIRECTION ( 'NONE',  ( 0.0000000000000000000, 1.000000000000000000, 0.0000000000000000000 ) ) ;
#51 = SURFACE_STYLE_USAGE ( .BOTH. , #23 ) ;
#52 = DIRECTION ( 'NONE',  ( -0.0000000000000000000, -1.000000000000000000, -0.0000000000000000000 ) ) ;
#53 = DIRECTION ( 'NONE',  ( -0.0000000000000000000, 1.000000000000000000, -0.0000000000000000000 ) ) ;
#54 = DIRECTION ( 'NONE',  ( 1.000000000000000000, 0.0000000000000000000, 0.0000000000000000000 ) ) ;
#55 = PRODUCT_CONTEXT ( 'NONE', #44, 'mechanical' ) ;
#56 = CARTESIAN_POINT ( 'NONE',  ( 0.0000000000000000000, 0.0000000000000000000, 0.0000000000000000000 ) ) ;
#57 = DIRECTION ( 'NONE',  ( 0.0000000000000000000, 0.0000000000000000000, 1.000000000000000000 ) ) ;
#58 = APPLICATION_PROTOCOL_DEFINITION ( 'draft international standard', 'automotive_design', 1998, #44 ) ;
#59 = DIRECTION ( 'NONE',  ( 0.0000000000000000000, 0.0000000000000000000, 1.000000000000000000 ) ) ;
#60 = DIRECTION ( 'NONE',  ( -0.0000000000000000000, -1.000000000000000000, -0.0000000000000000000 ) ) ;
#61 =( NAMED_UNIT ( * ) PLANE_ANGLE_UNIT ( ) SI_UNIT ( $, .RADIAN. ) );
#62 =( LENGTH_UNIT ( ) NAMED_UNIT ( * ) SI_UNIT ( .MILLI., .METRE. ) );
#63 = DIRECTION ( 'NONE',  ( 0.0000000000000000000, -0.0000000000000000000, 1.000000000000000000 ) ) ;
#64 = APPLICATION_CONTEXT ( 'automotive_design' ) ;
#65 = CARTESIAN_POINT ( 'NONE',  ( 0.0000000000000000000, 24.54999999999999700, 0.0000000000000000000 ) ) ;
#66 = CARTESIAN_POINT ( 'NONE',  ( 0.0000000000000000000, -1.224646799147353300E-015, -10.00000000000000000 ) ) ;
#67 = PLANE ( 'NONE',  #183 ) ;
#68 = PLANE ( 'NONE',  #182 ) ;
#69 = DIRECTION ( 'NONE',  ( 0.0000000000000000000, 0.0000000000000000000, -1.000000000000000000 ) ) ;
#70 = CARTESIAN_POINT ( 'NONE',  ( 2.449293598294695100E-016, 24.54999999999999700, -1.999999999999990900 ) ) ;
#71 = DIRECTION ( 'NONE',  ( -0.0000000000000000000, 1.000000000000000000, -0.0000000000000000000 ) ) ;
#72 = CARTESIAN_POINT ( 'NONE',  ( 0.0000000000000000000, 0.0000000000000000000, 0.0000000000000000000 ) ) ;
#73 = CARTESIAN_POINT ( 'NONE',  ( 0.0000000000000000000, 24.54999999999999700, 1.999999999999988000 ) ) ;
#74 = DIRECTION ( 'NONE',  ( 0.0000000000000000000, 0.0000000000000000000, -1.000000000000000000 ) ) ;
#75 = CARTESIAN_POINT ( 'NONE',  ( 0.0000000000000000000, 24.54999999999999700, 0.0000000000000000000 ) ) ;
#76 = DIRECTION ( 'NONE',  ( 0.0000000000000000000, 0.0000000000000000000, 1.000000000000000000 ) ) ;
#77 = CARTESIAN_POINT ( 'NONE',  ( 0.0000000000000000000, 24.54999999999999700, 0.0000000000000000000 ) ) ;
#78 = CARTESIAN_POINT ( 'NONE',  ( 0.0000000000000000000, 0.0000000000000000000, 0.0000000000000000000 ) ) ;
#79 = CARTESIAN_POINT ( 'NONE',  ( 1.224646799147353300E-015, 24.54999999999999700, 10.00000000000000000 ) ) ;
#80 = CARTESIAN_POINT ( 'NONE',  ( 2.449293598294692600E-016, 24.54999999999999700, -1.999999999999988000 ) ) ;
#81 = DIRECTION ( 'NONE',  ( 0.0000000000000000000, 0.0000000000000000000, 1.000000000000000000 ) ) ;
#82 = DIRECTION ( 'NONE',  ( 0.0000000000000000000, 0.0000000000000000000, -1.000000000000000000 ) ) ;
#83 = CARTESIAN_POINT ( 'NONE',  ( 2.449293598294699000E-016, 0.0000000000000000000, -1.999999999999994000 ) ) ;
#84 = CARTESIAN_POINT ( 'NONE',  ( 0.0000000000000000000, 0.0000000000000000000, 1.999999999999994000 ) ) ;
#85 = DIRECTION ( 'NONE',  ( -0.0000000000000000000, 1.000000000000000000, -0.0000000000000000000 ) ) ;
#86 = SHAPE_DEFINITION_REPRESENTATION ( #214, #170 ) ;
#87 = EDGE_LOOP ( 'NONE', ( #146, #105, #131, #109 ) ) ;
#88 = VERTEX_POINT ( 'NONE', #80 ) ;
#89 = EDGE_LOOP ( 'NONE', ( #90, #119 ) ) ;
#90 = ORIENTED_EDGE ( 'NONE', *, *, #200, .T. ) ;
#91 = VERTEX_POINT ( 'NONE', #73 ) ;
#92 = VERTEX_POINT ( 'NONE', #84 ) ;
#93 = EDGE_LOOP ( 'NONE', ( #113, #151 ) ) ;
#94 = ORIENTED_EDGE ( 'NONE', *, *, #190, .T. ) ;
#95 = CIRCLE ( 'NONE', #187, 10.00000000000000000 ) ;
#96 = CLOSED_SHELL ( 'NONE', ( #164, #166, #163, #165, #168, #167 ) ) ;
#97 = CIRCLE ( 'NONE', #186, 1.999999999999994000 ) ;
#98 = ORIENTED_EDGE ( 'NONE', *, *, #198, .T. ) ;
#99 = CYLINDRICAL_SURFACE ( 'NONE', #194, 1.999999999999990900 ) ;
#100 = CIRCLE ( 'NONE', #191, 1.999999999999988000 ) ;
#101 = FACE_BOUND ( 'NONE', #122, .T. ) ;
#102 = ORIENTED_EDGE ( 'NONE', *, *, #197, .F. ) ;
#103 = EDGE_LOOP ( 'NONE', ( #130, #123, #142, #136 ) ) ;
#104 = LINE ( 'NONE', #24, #114 ) ;
#105 = ORIENTED_EDGE ( 'NONE', *, *, #196, .T. ) ;
#106 = VECTOR ( 'NONE', #29, 1000.000000000000000 ) ;
#107 = ORIENTED_EDGE ( 'NONE', *, *, #198, .F. ) ;
#108 = LINE ( 'NONE', #70, #106 ) ;
#109 = ORIENTED_EDGE ( 'NONE', *, *, #193, .F. ) ;
#110 = FACE_OUTER_BOUND ( 'NONE', #89, .T. ) ;
#111 = LINE ( 'NONE', #3, #120 ) ;
#112 = FACE_OUTER_BOUND ( 'NONE', #127, .T. ) ;
#113 = ORIENTED_EDGE ( 'NONE', *, *, #201, .T. ) ;
#114 = VECTOR ( 'NONE', #52, 1000.000000000000000 ) ;
#115 = CIRCLE ( 'NONE', #209, 10.00000000000000000 ) ;
#116 = ORIENTED_EDGE ( 'NONE', *, *, #207, .F. ) ;
#117 = VERTEX_POINT ( 'NONE', #83 ) ;
#118 = CYLINDRICAL_SURFACE ( 'NONE', #203, 1.999999999999990900 ) ;
#119 = ORIENTED_EDGE ( 'NONE', *, *, #207, .T. ) ;
#120 = VECTOR ( 'NONE', #46, 1000.000000000000000 ) ;
#121 = VERTEX_POINT ( 'NONE', #25 ) ;
#122 = EDGE_LOOP ( 'NONE', ( #143, #102 ) ) ;
#123 = ORIENTED_EDGE ( 'NONE', *, *, #201, .F. ) ;
#124 = ORIENTED_EDGE ( 'NONE', *, *, #200, .F. ) ;
#125 = COLOUR_RGB ( '',0.7921568627450980000, 0.8196078431372548800, 0.9333333333333333500 ) ;
#126 = VECTOR ( 'NONE', #85, 1000.000000000000000 ) ;
#127 = EDGE_LOOP ( 'NONE', ( #107, #138 ) ) ;
#128 = PRESENTATION_STYLE_ASSIGNMENT (( #51 ) ) ;
#129 = ORIENTED_EDGE ( 'NONE', *, *, #192, .T. ) ;
#130 = ORIENTED_EDGE ( 'NONE', *, *, #196, .F. ) ;
#131 = ORIENTED_EDGE ( 'NONE', *, *, #197, .T. ) ;
#132 = EDGE_LOOP ( 'NONE', ( #154, #144, #129, #116 ) ) ;
#133 = CIRCLE ( 'NONE', #178, 1.999999999999988000 ) ;
#134 = FACE_OUTER_BOUND ( 'NONE', #87, .T. ) ;
#135 = EDGE_LOOP ( 'NONE', ( #98, #94, #124, #141 ) ) ;
#136 = ORIENTED_EDGE ( 'NONE', *, *, #211, .T. ) ;
#137 = FACE_OUTER_BOUND ( 'NONE', #132, .T. ) ;
#138 = ORIENTED_EDGE ( 'NONE', *, *, #199, .F. ) ;
#139 = FACE_BOUND ( 'NONE', #93, .T. ) ;
#140 = SURFACE_STYLE_FILL_AREA ( #12 ) ;
#141 = ORIENTED_EDGE ( 'NONE', *, *, #192, .F. ) ;
#142 = ORIENTED_EDGE ( 'NONE', *, *, #193, .T. ) ;
#143 = ORIENTED_EDGE ( 'NONE', *, *, #211, .F. ) ;
#144 = ORIENTED_EDGE ( 'NONE', *, *, #199, .T. ) ;
#145 = SURFACE_STYLE_FILL_AREA ( #20 ) ;
#146 = ORIENTED_EDGE ( 'NONE', *, *, #206, .F. ) ;
#147 = VERTEX_POINT ( 'NONE', #21 ) ;
#148 = PRESENTATION_STYLE_ASSIGNMENT (( #39 ) ) ;
#149 = COLOUR_RGB ( '',0.7921568627450980000, 0.8196078431372548800, 0.9333333333333333500 ) ;
#150 = CYLINDRICAL_SURFACE ( 'NONE', #181, 10.00000000000000000 ) ;
#151 = ORIENTED_EDGE ( 'NONE', *, *, #206, .T. ) ;
#152 = LINE ( 'NONE', #30, #126 ) ;
#153 = CIRCLE ( 'NONE', #210, 10.00000000000000000 ) ;
#154 = ORIENTED_EDGE ( 'NONE', *, *, #190, .F. ) ;
#155 = CIRCLE ( 'NONE', #185, 1.999999999999994000 ) ;
#156 = VERTEX_POINT ( 'NONE', #79 ) ;
#157 = FACE_OUTER_BOUND ( 'NONE', #135, .T. ) ;
#158 = CIRCLE ( 'NONE', #204, 10.00000000000000000 ) ;
#159 = FACE_OUTER_BOUND ( 'NONE', #103, .T. ) ;
#160 = VERTEX_POINT ( 'NONE', #66 ) ;
#161 = CYLINDRICAL_SURFACE ( 'NONE', #179, 10.00000000000000000 ) ;
#162 = PRODUCT ( 'OpenSPIM_Stilt_1in-Mirror', 'OpenSPIM_Stilt_1in-Mirror', '', ( #55 ) ) ;
#163 = ADVANCED_FACE ( 'NONE', ( #139, #110 ), #67, .F. ) ;
#164 = ADVANCED_FACE ( 'NONE', ( #134 ), #118, .F. ) ;
#165 = ADVANCED_FACE ( 'NONE', ( #137 ), #161, .T. ) ;
#166 = ADVANCED_FACE ( 'NONE', ( #157 ), #150, .T. ) ;
#167 = ADVANCED_FACE ( 'NONE', ( #159 ), #99, .F. ) ;
#168 = ADVANCED_FACE ( 'NONE', ( #101, #112 ), #68, .F. ) ;
#169 = UNCERTAINTY_MEASURE_WITH_UNIT (LENGTH_MEASURE( 1.000000000000000100E-005 ), #17, 'distance_accuracy_value', 'NONE');
#170 = ADVANCED_BREP_SHAPE_REPRESENTATION ( 'OpenSPIM_Stilt_1in-Mirror', ( #173, #176 ), #188 ) ;
#171 = UNCERTAINTY_MEASURE_WITH_UNIT (LENGTH_MEASURE( 1.000000000000000100E-005 ), #62, 'distance_accuracy_value', 'NONE');
#172 = UNCERTAINTY_MEASURE_WITH_UNIT (LENGTH_MEASURE( 1.000000000000000100E-005 ), #35, 'distance_accuracy_value', 'NONE');
#173 = MANIFOLD_SOLID_BREP ( 'Ø4.0 (4) Diameter Hole1', #96 ) ;
#174 = PRODUCT_DEFINITION_FORMATION_WITH_SPECIFIED_SOURCE ( 'ANY', '', #162, .NOT_KNOWN. ) ;
#175 = PRODUCT_DEFINITION ( 'UNKNOWN', '', #174, #213 ) ;
#176 = AXIS2_PLACEMENT_3D ( 'NONE', #56, #81, #54 ) ;
#177 = MECHANICAL_DESIGN_GEOMETRIC_PRESENTATION_REPRESENTATION (  '', ( #189 ), #208 ) ;
#178 = AXIS2_PLACEMENT_3D ( 'NONE', #45, #19, #43 ) ;
#179 = AXIS2_PLACEMENT_3D ( 'NONE', #72, #2, #1 ) ;
#180 = STYLED_ITEM ( 'NONE', ( #128 ), #173 ) ;
#181 = AXIS2_PLACEMENT_3D ( 'NONE', #48, #42, #49 ) ;
#182 = AXIS2_PLACEMENT_3D ( 'NONE', #16, #8, #38 ) ;
#183 = AXIS2_PLACEMENT_3D ( 'NONE', #27, #50, #63 ) ;
#184 = PRESENTATION_LAYER_ASSIGNMENT (  '', '', ( #180 ) ) ;
#185 = AXIS2_PLACEMENT_3D ( 'NONE', #13, #37, #31 ) ;
#186 = AXIS2_PLACEMENT_3D ( 'NONE', #78, #53, #57 ) ;
#187 = AXIS2_PLACEMENT_3D ( 'NONE', #14, #60, #69 ) ;
#188 =( GEOMETRIC_REPRESENTATION_CONTEXT ( 3 ) GLOBAL_UNCERTAINTY_ASSIGNED_CONTEXT ( ( #171 ) ) GLOBAL_UNIT_ASSIGNED_CONTEXT ( ( #62, #15, #28 ) ) REPRESENTATION_CONTEXT ( 'NONE', 'WORKASPACE' ) );
#189 = STYLED_ITEM ( 'NONE', ( #148 ), #170 ) ;
#190 = EDGE_CURVE ( 'NONE', #156, #147, #104, .T. ) ;
#191 = AXIS2_PLACEMENT_3D ( 'NONE', #75, #36, #59 ) ;
#192 = EDGE_CURVE ( 'NONE', #121, #160, #111, .T. ) ;
#193 = EDGE_CURVE ( 'NONE', #92, #91, #152, .T. ) ;
#194 = AXIS2_PLACEMENT_3D ( 'NONE', #32, #22, #7 ) ;
#195 = PRESENTATION_LAYER_ASSIGNMENT (  '', '', ( #189 ) ) ;
#196 = EDGE_CURVE ( 'NONE', #117, #88, #108, .T. ) ;
#197 = EDGE_CURVE ( 'NONE', #88, #91, #133, .T. ) ;
#198 = EDGE_CURVE ( 'NONE', #121, #156, #115, .T. ) ;
#199 = EDGE_CURVE ( 'NONE', #156, #121, #158, .T. ) ;
#200 = EDGE_CURVE ( 'NONE', #160, #147, #153, .T. ) ;
#201 = EDGE_CURVE ( 'NONE', #92, #117, #97, .T. ) ;
#202 = MECHANICAL_DESIGN_GEOMETRIC_PRESENTATION_REPRESENTATION (  '', ( #180 ), #205 ) ;
#203 = AXIS2_PLACEMENT_3D ( 'NONE', #65, #71, #76 ) ;
#204 = AXIS2_PLACEMENT_3D ( 'NONE', #77, #9, #82 ) ;
#205 =( GEOMETRIC_REPRESENTATION_CONTEXT ( 3 ) GLOBAL_UNCERTAINTY_ASSIGNED_CONTEXT ( ( #172 ) ) GLOBAL_UNIT_ASSIGNED_CONTEXT ( ( #35, #4, #10 ) ) REPRESENTATION_CONTEXT ( 'NONE', 'WORKASPACE' ) );
#206 = EDGE_CURVE ( 'NONE', #117, #92, #155, .T. ) ;
#207 = EDGE_CURVE ( 'NONE', #147, #160, #95, .T. ) ;
#208 =( GEOMETRIC_REPRESENTATION_CONTEXT ( 3 ) GLOBAL_UNCERTAINTY_ASSIGNED_CONTEXT ( ( #169 ) ) GLOBAL_UNIT_ASSIGNED_CONTEXT ( ( #17, #61, #40 ) ) REPRESENTATION_CONTEXT ( 'NONE', 'WORKASPACE' ) );
#209 = AXIS2_PLACEMENT_3D ( 'NONE', #34, #11, #33 ) ;
#210 = AXIS2_PLACEMENT_3D ( 'NONE', #6, #41, #74 ) ;
#211 = EDGE_CURVE ( 'NONE', #91, #88, #100, .T. ) ;
#212 = PRODUCT_RELATED_PRODUCT_CATEGORY ( 'part', '', ( #162 ) ) ;
#213 = PRODUCT_DEFINITION_CONTEXT ( 'detailed design', #64, 'design' ) ;
#214 = PRODUCT_DEFINITION_SHAPE ( 'NONE', 'NONE',  #175 ) ;
ENDSEC;
END-ISO-10303-21;
