ISO-10303-21;
HEADER;
FILE_DESCRIPTION (( 'STEP AP214' ),
    '1' );
FILE_NAME ('OpenSPIM_Stilt_1-2in-Mirror.STEP',
    '2012-05-25T17:28:36',
    ( 'huiskenlab' ),
    ( '' ),
    'SwSTEP 2.0',
    'SolidWorks 2012',
    '' );
FILE_SCHEMA (( 'AUTOMOTIVE_DESIGN' ));
ENDSEC;

DATA;
#1 = UNCERTAINTY_MEASURE_WITH_UNIT (LENGTH_MEASURE( 1.000000000000000100E-005 ), #158, 'distance_accuracy_value', 'NONE');
#2 = UNCERTAINTY_MEASURE_WITH_UNIT (LENGTH_MEASURE( 1.000000000000000100E-005 ), #224, 'distance_accuracy_value', 'NONE');
#3 = ADVANCED_BREP_SHAPE_REPRESENTATION ( 'OpenSPIM_Stilt_1-2in-Mirror', ( #4, #279 ), #270 ) ;
#4 = MANIFOLD_SOLID_BREP ( 'Boss-Extrude2', #84 ) ;
#5 = UNCERTAINTY_MEASURE_WITH_UNIT (LENGTH_MEASURE( 1.000000000000000100E-005 ), #146, 'distance_accuracy_value', 'NONE');
#6 = ADVANCED_FACE ( 'NONE', ( #29 ), #97, .T. ) ;
#7 = PRODUCT_DEFINITION_CONTEXT ( 'detailed design', #200, 'design' ) ;
#8 = PRODUCT_DEFINITION_SHAPE ( 'NONE', 'NONE',  #276 ) ;
#9 = ADVANCED_FACE ( 'NONE', ( #19 ), #82, .F. ) ;
#10 = PRODUCT ( 'OpenSPIM_Stilt_1-2in-Mirror', 'OpenSPIM_Stilt_1-2in-Mirror', '', ( #135 ) ) ;
#11 = ADVANCED_FACE ( 'NONE', ( #77, #81 ), #229, .F. ) ;
#12 = ADVANCED_FACE ( 'NONE', ( #30 ), #78, .T. ) ;
#13 = ADVANCED_FACE ( 'NONE', ( #45, #95 ), #230, .T. ) ;
#14 = ADVANCED_FACE ( 'NONE', ( #20 ), #90, .F. ) ;
#15 = CIRCLE ( 'NONE', #290, 3.350000000000000100 ) ;
#16 = ORIENTED_EDGE ( 'NONE', *, *, #259, .F. ) ;
#17 = CIRCLE ( 'NONE', #286, 3.350000000000000100 ) ;
#18 = CIRCLE ( 'NONE', #284, 8.000000000000000000 ) ;
#19 = FACE_OUTER_BOUND ( 'NONE', #59, .T. ) ;
#20 = FACE_OUTER_BOUND ( 'NONE', #51, .T. ) ;
#21 = CYLINDRICAL_SURFACE ( 'NONE', #281, 8.000000000000000000 ) ;
#22 = COLOUR_RGB ( '',0.7921568627450980000, 0.8196078431372548800, 0.9333333333333333500 ) ;
#23 = ORIENTED_EDGE ( 'NONE', *, *, #245, .F. ) ;
#24 = ORIENTED_EDGE ( 'NONE', *, *, #254, .T. ) ;
#25 = SURFACE_STYLE_FILL_AREA ( #192 ) ;
#26 = CYLINDRICAL_SURFACE ( 'NONE', #267, 3.350000000000000100 ) ;
#27 = FACE_OUTER_BOUND ( 'NONE', #103, .T. ) ;
#28 = VERTEX_POINT ( 'NONE', #212 ) ;
#29 = FACE_OUTER_BOUND ( 'NONE', #112, .T. ) ;
#30 = FACE_OUTER_BOUND ( 'NONE', #92, .T. ) ;
#31 = VERTEX_POINT ( 'NONE', #125 ) ;
#32 = ORIENTED_EDGE ( 'NONE', *, *, #243, .F. ) ;
#33 = EDGE_LOOP ( 'NONE', ( #46, #38 ) ) ;
#34 = EDGE_LOOP ( 'NONE', ( #63, #65 ) ) ;
#35 = VERTEX_POINT ( 'NONE', #133 ) ;
#36 = EDGE_LOOP ( 'NONE', ( #100, #111 ) ) ;
#37 = CIRCLE ( 'NONE', #268, 8.000000000000000000 ) ;
#38 = ORIENTED_EDGE ( 'NONE', *, *, #253, .T. ) ;
#39 = CIRCLE ( 'NONE', #272, 3.350000000000000100 ) ;
#40 = ORIENTED_EDGE ( 'NONE', *, *, #251, .T. ) ;
#41 = FACE_BOUND ( 'NONE', #33, .T. ) ;
#42 = ORIENTED_EDGE ( 'NONE', *, *, #240, .T. ) ;
#43 = CIRCLE ( 'NONE', #273, 2.125000000000000000 ) ;
#44 = LINE ( 'NONE', #163, #47 ) ;
#45 = FACE_OUTER_BOUND ( 'NONE', #34, .T. ) ;
#46 = ORIENTED_EDGE ( 'NONE', *, *, #245, .T. ) ;
#47 = VECTOR ( 'NONE', #160, 1000.000000000000000 ) ;
#48 = FACE_OUTER_BOUND ( 'NONE', #119, .T. ) ;
#49 = ORIENTED_EDGE ( 'NONE', *, *, #252, .T. ) ;
#50 = ORIENTED_EDGE ( 'NONE', *, *, #287, .F. ) ;
#51 = EDGE_LOOP ( 'NONE', ( #53, #113, #106, #56 ) ) ;
#52 = ORIENTED_EDGE ( 'NONE', *, *, #243, .T. ) ;
#53 = ORIENTED_EDGE ( 'NONE', *, *, #251, .F. ) ;
#54 = VERTEX_POINT ( 'NONE', #139 ) ;
#55 = CIRCLE ( 'NONE', #249, 2.125000000000000000 ) ;
#56 = ORIENTED_EDGE ( 'NONE', *, *, #253, .F. ) ;
#57 = VECTOR ( 'NONE', #216, 1000.000000000000000 ) ;
#58 = ORIENTED_EDGE ( 'NONE', *, *, #257, .T. ) ;
#59 = EDGE_LOOP ( 'NONE', ( #42, #40, #23, #16 ) ) ;
#60 = ORIENTED_EDGE ( 'NONE', *, *, #242, .T. ) ;
#61 = EDGE_LOOP ( 'NONE', ( #102, #122 ) ) ;
#62 = EDGE_LOOP ( 'NONE', ( #110, #118 ) ) ;
#63 = ORIENTED_EDGE ( 'NONE', *, *, #287, .T. ) ;
#64 = ORIENTED_EDGE ( 'NONE', *, *, #255, .F. ) ;
#65 = ORIENTED_EDGE ( 'NONE', *, *, #264, .T. ) ;
#66 = VERTEX_POINT ( 'NONE', #138 ) ;
#67 = ORIENTED_EDGE ( 'NONE', *, *, #257, .F. ) ;
#68 = COLOUR_RGB ( '',0.7921568627450980000, 0.8196078431372548800, 0.9333333333333333500 ) ;
#69 = ORIENTED_EDGE ( 'NONE', *, *, #264, .F. ) ;
#70 = ORIENTED_EDGE ( 'NONE', *, *, #250, .F. ) ;
#71 = CIRCLE ( 'NONE', #275, 2.125000000000000400 ) ;
#72 = VECTOR ( 'NONE', #218, 1000.000000000000000 ) ;
#73 = LINE ( 'NONE', #183, #75 ) ;
#74 = LINE ( 'NONE', #215, #57 ) ;
#75 = VECTOR ( 'NONE', #161, 1000.000000000000000 ) ;
#76 = FACE_OUTER_BOUND ( 'NONE', #62, .T. ) ;
#77 = FACE_BOUND ( 'NONE', #61, .T. ) ;
#78 = CYLINDRICAL_SURFACE ( 'NONE', #261, 3.350000000000000100 ) ;
#79 = PRESENTATION_STYLE_ASSIGNMENT (( #127 ) ) ;
#80 = ORIENTED_EDGE ( 'NONE', *, *, #240, .F. ) ;
#81 = FACE_OUTER_BOUND ( 'NONE', #36, .T. ) ;
#82 = CYLINDRICAL_SURFACE ( 'NONE', #285, 2.125000000000000000 ) ;
#83 = ORIENTED_EDGE ( 'NONE', *, *, #241, .T. ) ;
#84 = CLOSED_SHELL ( 'NONE', ( #12, #9, #6, #13, #11, #294, #14, #293, #292 ) ) ;
#85 = LINE ( 'NONE', #201, #120 ) ;
#86 = CIRCLE ( 'NONE', #271, 2.125000000000000400 ) ;
#87 = CIRCLE ( 'NONE', #274, 3.350000000000000100 ) ;
#88 = VERTEX_POINT ( 'NONE', #140 ) ;
#89 = LINE ( 'NONE', #155, #72 ) ;
#90 = CYLINDRICAL_SURFACE ( 'NONE', #289, 2.125000000000000000 ) ;
#91 = LINE ( 'NONE', #167, #96 ) ;
#92 = EDGE_LOOP ( 'NONE', ( #60, #123, #64, #67 ) ) ;
#93 = CIRCLE ( 'NONE', #288, 8.000000000000000000 ) ;
#94 = CIRCLE ( 'NONE', #269, 8.000000000000000000 ) ;
#95 = FACE_BOUND ( 'NONE', #98, .T. ) ;
#96 = VECTOR ( 'NONE', #168, 1000.000000000000000 ) ;
#97 = CYLINDRICAL_SURFACE ( 'NONE', #262, 8.000000000000000000 ) ;
#98 = EDGE_LOOP ( 'NONE', ( #80, #108 ) ) ;
#99 = SURFACE_STYLE_FILL_AREA ( #195 ) ;
#100 = ORIENTED_EDGE ( 'NONE', *, *, #244, .F. ) ;
#101 = VERTEX_POINT ( 'NONE', #134 ) ;
#102 = ORIENTED_EDGE ( 'NONE', *, *, #255, .T. ) ;
#103 = EDGE_LOOP ( 'NONE', ( #32, #50, #24, #107 ) ) ;
#104 = VERTEX_POINT ( 'NONE', #136 ) ;
#105 = ORIENTED_EDGE ( 'NONE', *, *, #254, .F. ) ;
#106 = ORIENTED_EDGE ( 'NONE', *, *, #259, .T. ) ;
#107 = ORIENTED_EDGE ( 'NONE', *, *, #244, .T. ) ;
#108 = ORIENTED_EDGE ( 'NONE', *, *, #263, .F. ) ;
#109 = VERTEX_POINT ( 'NONE', #137 ) ;
#110 = ORIENTED_EDGE ( 'NONE', *, *, #242, .F. ) ;
#111 = ORIENTED_EDGE ( 'NONE', *, *, #252, .F. ) ;
#112 = EDGE_LOOP ( 'NONE', ( #69, #52, #49, #105 ) ) ;
#113 = ORIENTED_EDGE ( 'NONE', *, *, #263, .T. ) ;
#114 = VERTEX_POINT ( 'NONE', #143 ) ;
#115 = VERTEX_POINT ( 'NONE', #141 ) ;
#116 = ORIENTED_EDGE ( 'NONE', *, *, #291, .F. ) ;
#117 = SHAPE_DEFINITION_REPRESENTATION ( #8, #3 ) ;
#118 = ORIENTED_EDGE ( 'NONE', *, *, #241, .F. ) ;
#119 = EDGE_LOOP ( 'NONE', ( #70, #83, #58, #116 ) ) ;
#120 = VECTOR ( 'NONE', #209, 1000.000000000000000 ) ;
#121 = VERTEX_POINT ( 'NONE', #142 ) ;
#122 = ORIENTED_EDGE ( 'NONE', *, *, #291, .T. ) ;
#123 = ORIENTED_EDGE ( 'NONE', *, *, #250, .T. ) ;
#124 = PRESENTATION_STYLE_ASSIGNMENT (( #182 ) ) ;
#125 = CARTESIAN_POINT ( 'NONE',  ( 0.0000000000000000000, 0.0000000000000000000, -8.000000000000000000 ) ) ;
#126 = DIRECTION ( 'NONE',  ( 0.0000000000000000000, 1.000000000000000000, 0.0000000000000000000 ) ) ;
#127 = SURFACE_STYLE_USAGE ( .BOTH. , #194 ) ;
#128 = DIRECTION ( 'NONE',  ( 0.0000000000000000000, 0.0000000000000000000, 1.000000000000000000 ) ) ;
#129 = DIRECTION ( 'NONE',  ( 0.0000000000000000000, 1.000000000000000000, 0.0000000000000000000 ) ) ;
#130 = CARTESIAN_POINT ( 'NONE',  ( 0.0000000000000000000, -2.299999999999999800, 0.0000000000000000000 ) ) ;
#131 = DIRECTION ( 'NONE',  ( 0.0000000000000000000, 0.0000000000000000000, 1.000000000000000000 ) ) ;
#132 = CARTESIAN_POINT ( 'NONE',  ( 0.0000000000000000000, 0.0000000000000000000, 0.0000000000000000000 ) ) ;
#133 = CARTESIAN_POINT ( 'NONE',  ( 0.0000000000000000000, -2.299999999999999800, -2.125000000000000400 ) ) ;
#134 = CARTESIAN_POINT ( 'NONE',  ( 0.0000000000000000000, 0.0000000000000000000, 3.350000000000000100 ) ) ;
#135 = PRODUCT_CONTEXT ( 'NONE', #178, 'mechanical' ) ;
#136 = CARTESIAN_POINT ( 'NONE',  ( 0.0000000000000000000, 18.25000000000000000, -8.000000000000000000 ) ) ;
#137 = CARTESIAN_POINT ( 'NONE',  ( 2.602374448188125800E-016, -2.299999999999999800, 2.125000000000000400 ) ) ;
#138 = CARTESIAN_POINT ( 'NONE',  ( 4.102566777143633300E-016, 0.0000000000000000000, -3.350000000000000100 ) ) ;
#139 = CARTESIAN_POINT ( 'NONE',  ( 9.797174393178825700E-016, 0.0000000000000000000, 8.000000000000000000 ) ) ;
#140 = CARTESIAN_POINT ( 'NONE',  ( 9.797174393178825700E-016, 18.25000000000000000, 8.000000000000000000 ) ) ;
#141 = CARTESIAN_POINT ( 'NONE',  ( 0.0000000000000000000, 18.25000000000000000, -2.125000000000000000 ) ) ;
#142 = CARTESIAN_POINT ( 'NONE',  ( 0.0000000000000000000, -2.299999999999999800, 3.350000000000000100 ) ) ;
#143 = CARTESIAN_POINT ( 'NONE',  ( 4.102566777143633300E-016, -2.299999999999999800, -3.350000000000000100 ) ) ;
#144 = DIRECTION ( 'NONE',  ( 0.0000000000000000000, -0.0000000000000000000, 1.000000000000000000 ) ) ;
#145 = FILL_AREA_STYLE_COLOUR ( '', #22 ) ;
#146 =( LENGTH_UNIT ( ) NAMED_UNIT ( * ) SI_UNIT ( .MILLI., .METRE. ) );
#147 = DIRECTION ( 'NONE',  ( 0.0000000000000000000, 1.000000000000000000, 0.0000000000000000000 ) ) ;
#148 = DIRECTION ( 'NONE',  ( 0.0000000000000000000, 1.000000000000000000, 0.0000000000000000000 ) ) ;
#149 = CARTESIAN_POINT ( 'NONE',  ( 0.0000000000000000000, -2.299999999999999800, 0.0000000000000000000 ) ) ;
#150 = PLANE ( 'NONE',  #283 ) ;
#151 = CARTESIAN_POINT ( 'NONE',  ( 0.0000000000000000000, 18.25000000000000000, 0.0000000000000000000 ) ) ;
#152 = DIRECTION ( 'NONE',  ( 0.0000000000000000000, 0.0000000000000000000, 1.000000000000000000 ) ) ;
#153 = CARTESIAN_POINT ( 'NONE',  ( 0.0000000000000000000, -2.299999999999999800, 0.0000000000000000000 ) ) ;
#154 = DIRECTION ( 'NONE',  ( 0.0000000000000000000, 1.000000000000000000, 0.0000000000000000000 ) ) ;
#155 = CARTESIAN_POINT ( 'NONE',  ( 4.102566777143633300E-016, -2.299999999999999800, -3.350000000000000100 ) ) ;
#156 = CARTESIAN_POINT ( 'NONE',  ( 0.0000000000000000000, 0.0000000000000000000, 0.0000000000000000000 ) ) ;
#157 =( NAMED_UNIT ( * ) SI_UNIT ( $, .STERADIAN. ) SOLID_ANGLE_UNIT ( ) );
#158 =( LENGTH_UNIT ( ) NAMED_UNIT ( * ) SI_UNIT ( .MILLI., .METRE. ) );
#159 = CARTESIAN_POINT ( 'NONE',  ( 0.0000000000000000000, 0.0000000000000000000, 0.0000000000000000000 ) ) ;
#160 = DIRECTION ( 'NONE',  ( 0.0000000000000000000, 1.000000000000000000, 0.0000000000000000000 ) ) ;
#161 = DIRECTION ( 'NONE',  ( -0.0000000000000000000, -1.000000000000000000, -0.0000000000000000000 ) ) ;
#162 = DIRECTION ( 'NONE',  ( 0.0000000000000000000, -0.0000000000000000000, 1.000000000000000000 ) ) ;
#163 = CARTESIAN_POINT ( 'NONE',  ( 0.0000000000000000000, -2.299999999999999800, 3.350000000000000100 ) ) ;
#164 = DIRECTION ( 'NONE',  ( 0.0000000000000000000, 1.000000000000000000, 0.0000000000000000000 ) ) ;
#165 = DIRECTION ( 'NONE',  ( 0.0000000000000000000, 0.0000000000000000000, 1.000000000000000000 ) ) ;
#166 = DIRECTION ( 'NONE',  ( 0.0000000000000000000, 1.000000000000000000, 0.0000000000000000000 ) ) ;
#167 = CARTESIAN_POINT ( 'NONE',  ( 2.602374448188125300E-016, 18.25000000000000000, 2.125000000000000000 ) ) ;
#168 = DIRECTION ( 'NONE',  ( -0.0000000000000000000, -1.000000000000000000, -0.0000000000000000000 ) ) ;
#169 = DIRECTION ( 'NONE',  ( 0.0000000000000000000, 0.0000000000000000000, 1.000000000000000000 ) ) ;
#170 = DIRECTION ( 'NONE',  ( 0.0000000000000000000, 0.0000000000000000000, 1.000000000000000000 ) ) ;
#171 = DIRECTION ( 'NONE',  ( 0.0000000000000000000, 1.000000000000000000, 0.0000000000000000000 ) ) ;
#172 = DIRECTION ( 'NONE',  ( 0.0000000000000000000, 1.000000000000000000, 0.0000000000000000000 ) ) ;
#173 = CARTESIAN_POINT ( 'NONE',  ( 0.0000000000000000000, 0.0000000000000000000, 0.0000000000000000000 ) ) ;
#174 = DIRECTION ( 'NONE',  ( -0.0000000000000000000, -1.000000000000000000, -0.0000000000000000000 ) ) ;
#175 = DIRECTION ( 'NONE',  ( 1.000000000000000000, 0.0000000000000000000, 0.0000000000000000000 ) ) ;
#176 = DIRECTION ( 'NONE',  ( 0.0000000000000000000, 1.000000000000000000, 0.0000000000000000000 ) ) ;
#177 = CARTESIAN_POINT ( 'NONE',  ( 0.0000000000000000000, 18.25000000000000000, 0.0000000000000000000 ) ) ;
#178 = APPLICATION_CONTEXT ( 'automotive_design' ) ;
#179 = DIRECTION ( 'NONE',  ( 0.0000000000000000000, 0.0000000000000000000, -1.000000000000000000 ) ) ;
#180 =( NAMED_UNIT ( * ) SI_UNIT ( $, .STERADIAN. ) SOLID_ANGLE_UNIT ( ) );
#181 = DIRECTION ( 'NONE',  ( -0.0000000000000000000, -1.000000000000000000, -0.0000000000000000000 ) ) ;
#182 = SURFACE_STYLE_USAGE ( .BOTH. , #190 ) ;
#183 = CARTESIAN_POINT ( 'NONE',  ( 0.0000000000000000000, 18.25000000000000000, -8.000000000000000000 ) ) ;
#184 = CARTESIAN_POINT ( 'NONE',  ( 0.0000000000000000000, 18.25000000000000000, 0.0000000000000000000 ) ) ;
#185 = DIRECTION ( 'NONE',  ( 0.0000000000000000000, 0.0000000000000000000, 1.000000000000000000 ) ) ;
#186 = DIRECTION ( 'NONE',  ( 0.0000000000000000000, 1.000000000000000000, 0.0000000000000000000 ) ) ;
#187 = CARTESIAN_POINT ( 'NONE',  ( 0.0000000000000000000, -2.299999999999999800, 0.0000000000000000000 ) ) ;
#188 =( NAMED_UNIT ( * ) PLANE_ANGLE_UNIT ( ) SI_UNIT ( $, .RADIAN. ) );
#189 = DIRECTION ( 'NONE',  ( 0.0000000000000000000, -0.0000000000000000000, 1.000000000000000000 ) ) ;
#190 = SURFACE_SIDE_STYLE ('',( #25 ) ) ;
#191 = CARTESIAN_POINT ( 'NONE',  ( 0.0000000000000000000, -2.299999999999999800, 0.0000000000000000000 ) ) ;
#192 = FILL_AREA_STYLE ('',( #145 ) ) ;
#193 = DIRECTION ( 'NONE',  ( 0.0000000000000000000, 0.0000000000000000000, 1.000000000000000000 ) ) ;
#194 = SURFACE_SIDE_STYLE ('',( #99 ) ) ;
#195 = FILL_AREA_STYLE ('',( #220 ) ) ;
#196 = CARTESIAN_POINT ( 'NONE',  ( 0.0000000000000000000, -2.299999999999999800, 0.0000000000000000000 ) ) ;
#197 = APPLICATION_PROTOCOL_DEFINITION ( 'draft international standard', 'automotive_design', 1998, #178 ) ;
#198 = APPLICATION_PROTOCOL_DEFINITION ( 'draft international standard', 'automotive_design', 1998, #200 ) ;
#199 = CARTESIAN_POINT ( 'NONE',  ( 0.0000000000000000000, 18.25000000000000000, 0.0000000000000000000 ) ) ;
#200 = APPLICATION_CONTEXT ( 'automotive_design' ) ;
#201 = CARTESIAN_POINT ( 'NONE',  ( 9.797174393178825700E-016, 18.25000000000000000, 8.000000000000000000 ) ) ;
#202 = DIRECTION ( 'NONE',  ( 0.0000000000000000000, 0.0000000000000000000, 1.000000000000000000 ) ) ;
#203 = DIRECTION ( 'NONE',  ( 0.0000000000000000000, 1.000000000000000000, 0.0000000000000000000 ) ) ;
#204 = DIRECTION ( 'NONE',  ( 0.0000000000000000000, 0.0000000000000000000, 1.000000000000000000 ) ) ;
#205 = DIRECTION ( 'NONE',  ( -0.0000000000000000000, -1.000000000000000000, -0.0000000000000000000 ) ) ;
#206 = DIRECTION ( 'NONE',  ( 0.0000000000000000000, 0.0000000000000000000, -1.000000000000000000 ) ) ;
#207 = CARTESIAN_POINT ( 'NONE',  ( 0.0000000000000000000, 18.25000000000000000, 0.0000000000000000000 ) ) ;
#208 = DIRECTION ( 'NONE',  ( 0.0000000000000000000, 0.0000000000000000000, -1.000000000000000000 ) ) ;
#209 = DIRECTION ( 'NONE',  ( -0.0000000000000000000, -1.000000000000000000, -0.0000000000000000000 ) ) ;
#210 = DIRECTION ( 'NONE',  ( 0.0000000000000000000, 0.0000000000000000000, -1.000000000000000000 ) ) ;
#211 = DIRECTION ( 'NONE',  ( 0.0000000000000000000, 0.0000000000000000000, 1.000000000000000000 ) ) ;
#212 = CARTESIAN_POINT ( 'NONE',  ( 2.602374448188125300E-016, 18.25000000000000000, 2.125000000000000000 ) ) ;
#213 = CARTESIAN_POINT ( 'NONE',  ( 0.0000000000000000000, 18.25000000000000000, 0.0000000000000000000 ) ) ;
#214 = DIRECTION ( 'NONE',  ( 0.0000000000000000000, 0.0000000000000000000, 1.000000000000000000 ) ) ;
#215 = CARTESIAN_POINT ( 'NONE',  ( 0.0000000000000000000, 18.25000000000000000, -2.125000000000000000 ) ) ;
#216 = DIRECTION ( 'NONE',  ( -0.0000000000000000000, -1.000000000000000000, -0.0000000000000000000 ) ) ;
#217 = DIRECTION ( 'NONE',  ( 0.0000000000000000000, 1.000000000000000000, 0.0000000000000000000 ) ) ;
#218 = DIRECTION ( 'NONE',  ( 0.0000000000000000000, 1.000000000000000000, 0.0000000000000000000 ) ) ;
#219 = DIRECTION ( 'NONE',  ( 0.0000000000000000000, 1.000000000000000000, 0.0000000000000000000 ) ) ;
#220 = FILL_AREA_STYLE_COLOUR ( '', #68 ) ;
#221 = DIRECTION ( 'NONE',  ( 0.0000000000000000000, 0.0000000000000000000, 1.000000000000000000 ) ) ;
#222 = DIRECTION ( 'NONE',  ( -0.0000000000000000000, -1.000000000000000000, -0.0000000000000000000 ) ) ;
#223 =( NAMED_UNIT ( * ) PLANE_ANGLE_UNIT ( ) SI_UNIT ( $, .RADIAN. ) );
#224 =( LENGTH_UNIT ( ) NAMED_UNIT ( * ) SI_UNIT ( .MILLI., .METRE. ) );
#225 = CARTESIAN_POINT ( 'NONE',  ( 0.0000000000000000000, 0.0000000000000000000, 0.0000000000000000000 ) ) ;
#226 = CARTESIAN_POINT ( 'NONE',  ( 0.0000000000000000000, 18.25000000000000000, 0.0000000000000000000 ) ) ;
#227 = DIRECTION ( 'NONE',  ( 0.0000000000000000000, 1.000000000000000000, 0.0000000000000000000 ) ) ;
#228 = CARTESIAN_POINT ( 'NONE',  ( 0.0000000000000000000, 18.25000000000000000, 0.0000000000000000000 ) ) ;
#229 = PLANE ( 'NONE',  #258 ) ;
#230 = PLANE ( 'NONE',  #260 ) ;
#231 = DIRECTION ( 'NONE',  ( 0.0000000000000000000, 0.0000000000000000000, 1.000000000000000000 ) ) ;
#232 = CARTESIAN_POINT ( 'NONE',  ( 0.0000000000000000000, 0.0000000000000000000, 0.0000000000000000000 ) ) ;
#233 = DIRECTION ( 'NONE',  ( 0.0000000000000000000, 1.000000000000000000, 0.0000000000000000000 ) ) ;
#234 =( NAMED_UNIT ( * ) PLANE_ANGLE_UNIT ( ) SI_UNIT ( $, .RADIAN. ) );
#235 = DIRECTION ( 'NONE',  ( 0.0000000000000000000, 1.000000000000000000, 0.0000000000000000000 ) ) ;
#236 =( NAMED_UNIT ( * ) SI_UNIT ( $, .STERADIAN. ) SOLID_ANGLE_UNIT ( ) );
#237 = CARTESIAN_POINT ( 'NONE',  ( 0.0000000000000000000, -2.299999999999999800, 0.0000000000000000000 ) ) ;
#238 = CARTESIAN_POINT ( 'NONE',  ( 0.0000000000000000000, 18.25000000000000000, 0.0000000000000000000 ) ) ;
#239 = DIRECTION ( 'NONE',  ( 0.0000000000000000000, 0.0000000000000000000, 1.000000000000000000 ) ) ;
#240 = EDGE_CURVE ( 'NONE', #115, #28, #55, .T. ) ;
#241 = EDGE_CURVE ( 'NONE', #114, #121, #15, .T. ) ;
#242 = EDGE_CURVE ( 'NONE', #121, #114, #17, .T. ) ;
#243 = EDGE_CURVE ( 'NONE', #88, #54, #85, .T. ) ;
#244 = EDGE_CURVE ( 'NONE', #31, #54, #93, .T. ) ;
#245 = EDGE_CURVE ( 'NONE', #35, #109, #71, .T. ) ;
#246 = PRESENTATION_LAYER_ASSIGNMENT (  '', '', ( #256 ) ) ;
#247 = MECHANICAL_DESIGN_GEOMETRIC_PRESENTATION_REPRESENTATION (  '', ( #256 ), #248 ) ;
#248 =( GEOMETRIC_REPRESENTATION_CONTEXT ( 3 ) GLOBAL_UNCERTAINTY_ASSIGNED_CONTEXT ( ( #2 ) ) GLOBAL_UNIT_ASSIGNED_CONTEXT ( ( #224, #234, #180 ) ) REPRESENTATION_CONTEXT ( 'NONE', 'WORKASPACE' ) );
#249 = AXIS2_PLACEMENT_3D ( 'NONE', #213, #148, #214 ) ;
#250 = EDGE_CURVE ( 'NONE', #114, #66, #89, .T. ) ;
#251 = EDGE_CURVE ( 'NONE', #28, #109, #91, .T. ) ;
#252 = EDGE_CURVE ( 'NONE', #54, #31, #94, .T. ) ;
#253 = EDGE_CURVE ( 'NONE', #109, #35, #86, .T. ) ;
#254 = EDGE_CURVE ( 'NONE', #104, #31, #73, .T. ) ;
#255 = EDGE_CURVE ( 'NONE', #101, #66, #87, .T. ) ;
#256 = STYLED_ITEM ( 'NONE', ( #79 ), #4 ) ;
#257 = EDGE_CURVE ( 'NONE', #121, #101, #44, .T. ) ;
#258 = AXIS2_PLACEMENT_3D ( 'NONE', #232, #233, #162 ) ;
#259 = EDGE_CURVE ( 'NONE', #115, #35, #74, .T. ) ;
#260 = AXIS2_PLACEMENT_3D ( 'NONE', #177, #164, #144 ) ;
#261 = AXIS2_PLACEMENT_3D ( 'NONE', #196, #203, #193 ) ;
#262 = AXIS2_PLACEMENT_3D ( 'NONE', #238, #181, #210 ) ;
#263 = EDGE_CURVE ( 'NONE', #28, #115, #43, .T. ) ;
#264 = EDGE_CURVE ( 'NONE', #88, #104, #37, .T. ) ;
#265 = MECHANICAL_DESIGN_GEOMETRIC_PRESENTATION_REPRESENTATION (  '', ( #282 ), #280 ) ;
#266 = PRESENTATION_LAYER_ASSIGNMENT (  '', '', ( #282 ) ) ;
#267 = AXIS2_PLACEMENT_3D ( 'NONE', #191, #176, #128 ) ;
#268 = AXIS2_PLACEMENT_3D ( 'NONE', #228, #219, #185 ) ;
#269 = AXIS2_PLACEMENT_3D ( 'NONE', #225, #129, #169 ) ;
#270 =( GEOMETRIC_REPRESENTATION_CONTEXT ( 3 ) GLOBAL_UNCERTAINTY_ASSIGNED_CONTEXT ( ( #5 ) ) GLOBAL_UNIT_ASSIGNED_CONTEXT ( ( #146, #223, #236 ) ) REPRESENTATION_CONTEXT ( 'NONE', 'WORKASPACE' ) );
#271 = AXIS2_PLACEMENT_3D ( 'NONE', #149, #217, #165 ) ;
#272 = AXIS2_PLACEMENT_3D ( 'NONE', #173, #172, #170 ) ;
#273 = AXIS2_PLACEMENT_3D ( 'NONE', #151, #147, #211 ) ;
#274 = AXIS2_PLACEMENT_3D ( 'NONE', #132, #227, #221 ) ;
#275 = AXIS2_PLACEMENT_3D ( 'NONE', #153, #154, #152 ) ;
#276 = PRODUCT_DEFINITION ( 'UNKNOWN', '', #278, #7 ) ;
#277 = PRODUCT_RELATED_PRODUCT_CATEGORY ( 'part', '', ( #10 ) ) ;
#278 = PRODUCT_DEFINITION_FORMATION_WITH_SPECIFIED_SOURCE ( 'ANY', '', #10, .NOT_KNOWN. ) ;
#279 = AXIS2_PLACEMENT_3D ( 'NONE', #156, #204, #175 ) ;
#280 =( GEOMETRIC_REPRESENTATION_CONTEXT ( 3 ) GLOBAL_UNCERTAINTY_ASSIGNED_CONTEXT ( ( #1 ) ) GLOBAL_UNIT_ASSIGNED_CONTEXT ( ( #158, #188, #157 ) ) REPRESENTATION_CONTEXT ( 'NONE', 'WORKASPACE' ) );
#281 = AXIS2_PLACEMENT_3D ( 'NONE', #207, #174, #208 ) ;
#282 = STYLED_ITEM ( 'NONE', ( #124 ), #3 ) ;
#283 = AXIS2_PLACEMENT_3D ( 'NONE', #130, #171, #189 ) ;
#284 = AXIS2_PLACEMENT_3D ( 'NONE', #226, #126, #131 ) ;
#285 = AXIS2_PLACEMENT_3D ( 'NONE', #184, #222, #179 ) ;
#286 = AXIS2_PLACEMENT_3D ( 'NONE', #187, #186, #239 ) ;
#287 = EDGE_CURVE ( 'NONE', #104, #88, #18, .T. ) ;
#288 = AXIS2_PLACEMENT_3D ( 'NONE', #159, #166, #202 ) ;
#289 = AXIS2_PLACEMENT_3D ( 'NONE', #199, #205, #206 ) ;
#290 = AXIS2_PLACEMENT_3D ( 'NONE', #237, #235, #231 ) ;
#291 = EDGE_CURVE ( 'NONE', #66, #101, #39, .T. ) ;
#292 = ADVANCED_FACE ( 'NONE', ( #41, #76 ), #150, .F. ) ;
#293 = ADVANCED_FACE ( 'NONE', ( #48 ), #26, .T. ) ;
#294 = ADVANCED_FACE ( 'NONE', ( #27 ), #21, .T. ) ;
ENDSEC;
END-ISO-10303-21;
